Oops, an error
Loading. Please wait.

El Mark bass

version 1
version 1

Whole song

Interactive

43 views 1 this week
no commentswrite comment
1 2 3 4 5
3 more votes to show rating
add to favorites
×
Save as Personal and add changes to this tab that will be seen only by you. Learn more ›
×
You can save this tab as Personal to edit and correct it or add notes. All changes will be seen only by you. Learn more »
launch autoscroll
font size
0
reset
guitar tuner
edit
Autoscroll
slow
fast
+/-
esc
set tempo
stop
Glassjaw
"El Mark"

Drop-D tuning

Corrections welcome!


[Intro]

G|------------------------|------------------------|------------------------|------------------------|
D|------------------------|------------------------|------------------------|------------------------|
A|------------------------|------------------------|------------------------|------------------------|
D|9-----x---x-9-----x---x-|9-----x---x-9-----x---x-|5-----x---x-5-----x---x-|5-----x---x-5-----x---x-|
  1 e a 2 e a 3 e a 4 e a  1 e a 2 e a 3 e a 4 e a  etc.

G|------------------------|------------------------|------------------------|------------------------|
D|------------------------|------------------------|------------------------|------------------------|
A|2---2-2-2---2---2-2-2---|2---2-2-2---5---5-5-5-5-|------------------------|7-7-7-7-7-7-7-7-7-7-7-7-|
D|------------------------|------------------------|5---5-5-5---5---5-5-5---|------------------------|


[Verse]

G|------------------------|------------------------|------------------------|------------------------|
D|------------------------|------------------------|------------------------|------------------------|
A|------------------------|------------------------|------------------------|------------7-7-7-------|
D|5---5-5-5---5---5-5-5---|5---5-5-5---5---5-5-5---|7---7-7-7-7-x-7---7---7-|x-7---7---7-------7-7-7-|


G|------------------------|------------------------|------------------------|------------------------|
D|------------------------|------------------------|------------------------|------------------------|
A|------------------------|------------------7-7-7-|------------------------|------------7-7-7-7-7-7-|
D|5---5-5-5---5---5-5-5---|5---5-5-5---7-7-7-------|7---7---7-7-x-7---7---7-|x-7---7---7-------------|


G|------------------------|------------------------|------------------------|------------------------|
D|------------------------|------------------------|------------------------|------------------------|
A|------------------------|------------------------|------------------------|------------7-7-7-7-7-7-|
D|5---5-5-5---5---5-5-5---|5---5-5-5---5---5-5-5---|7---7---7-7-x-7---7---7-|x-7---7---7------------|


G|------------------------|------------------------|------------------------|------------------------|
D|------------------------|------------------------|------------------------|------------7-7-7-7-7-7-|
A|------------------------|------------7-7-7-7-7-7-|------------------------|7-7-7-7-7-7-------------|
D|5---5-5-5---5---5-5-5---|5---5-5-5---------------|7---7---7-7-x-7---7---7-|------------------------|


[Chorus]

G|------------------------|------------------------|------------------------|------------------------|
D|------------------------|------------------2-2-2-|------------------------|5-5-5-5-5-5-5-5-5-5-5-5-|
A|2-2-2-2-2-2-2-2-2-2-2-2-|3-3-3-3-3-3-3-3-3-------|------------------------|------------------------|
D|------------------------|------------------------|2-2-2-2-2-2-2-2-2-2-2-2-|------------------------|

G|------------------------|------------------------|------------------------|------------------------|
D|------------------------|------------------2-2-2-|------------------------|5-5-5-5-5-5-5-5-5-5-5-5-|
A|2-2-2-2-2-2-2-2-2-2-2-2-|3-3-3-3-3-3-3-3-3-------|------------------------|------------------------|
D|------------------------|------------------------|2-2-2-2-2-2-2-2-2-2-2-2-|------------------------|


[Break]

G|------------------------|------------------------|------------------------|------------------------|
D|------------------------|------------------------|------------------------|------------------------|
A|------------------------|------------------------|------------------------|------------------------|
D|7/9---9---9---7/9-9---9-|7/9---9---9---7/9-9---9-|7/9---9---9---7/9-9---9-|7/9---9---9-x-x-x-x-x-x-|


G|------------------------|
D|------------------------|
A|------------------------|
D|------------------12\---|


[Verse]

G|------------------------|------------------------|------------------------|------------------------|
D|------------------------|------------------------|------------------------|------------------------|
A|------------------------|------------------------|------------------------|------------7-7-7-7-7-7-|
D|5-5-5-5-5-5-5-5-5-5-5-5-|5-5-5-5-5-5-5-5-5-5-5-5-|7---7---7-7-x-7---7---7-|x-7---7---7-------------|


G|------------------------|------------------------|------------------------|------------------------|
D|------------------------|------------------------|------------------------|------------------------|
A|------------------------|------------7-7-7-7-7-7-|------------------------|------------7-7-7-7-7-7-|
D|5---5-5-5---5---5-5-5---|5---5-5-5---------------|7---7---7-7-x-7---7---7-|x-7---7---7-------------|


G|------------------------|------------------------|------------------------|------------------------|
D|------------------------|------------------------|------------------------|------------7-7-7-7-7-7-|
A|------------------------|------------------------|------------------------|7-7-7-7-7-7-------------|
D|5---5-5-5---5---5-5-5---|5---5-5-5---5---5-5-5---|7---7---7-7-x-7---7---7-|------------------------|


G|------------------------|------------------------|------------------------|------------------------|
D|------------------------|------------------------|------------------------|------------7-7-7-7-7-7-|
A|------------------------|------------7-7-7-7-7-7-|------------------------|7-7-7-7-7-7-------------|
D|5---5-5-5---5---5-5-5---|7-7-7-7-7-7-------------|7---7---7-7-x-7---7---7-|------------------------|


[Chorus]

G|------------------------|------------------------|------------------------|------------------------|
D|------------------------|------------------------|2-2-2-2-2-2-2-2-2-2-2-2-|5-5-5-5-5-5-5-5-5-5-5-5-|
A|2-2-2-2-2-2-2-2-2-2-2-2-|3-3-3-3-3-3-3-3-3-3-3-3-|------------------------|------------------------|
D|------------------------|------------------------|------------------------|------------------------|


G|------------------------|------------------------|------------------------|------------------------|
D|------------------------|------------------2-2-2-|------------------------|5-5-5-5-5-5-5-5-5-5-5-5-|
A|2-2-2-2-2-2-2-2-2-2-2-2-|3-3-3-3-3-3-3-3-3-------|------------------------|------------------------|
D|------------------------|------------------------|2-2-2-2-2-2-2-2-2-2-2-2-|------------------------|

        PM----------------       PM----------------
G|------------------------|------------------------|------------------------|------------------------|
D|------2-2-2-2-2-2-2-2-2-|------2-2-2-2-2-2-2-2-2-|--------2-3-5-5-5-5-5-5-|5-5-5-5-5-5-5-5-5-5-5-5-|
A|2-2-2-------------------|2-2-2-------------------|3-3-3-3-----------------|------------------------|
D|------------------------|------------------------|------------------------|------------------------|

        PM----------------       PM----------------
G|------------------------|------------------------|------------------------|------------------------|
D|------2-2-2-2-2-2-2-2-2-|------2-2-2-2-2-2-2-2-2-|--------2-3-5-5-5-5-5-5-|------------3-----2-----|
A|2-2-2-------------------|2-2-2-------------------|3-3-3-3-----------------|3-----2-----------------|
D|------------------------|------------------------|------------------------|------------------------|


[Break]

G|------------------------|------------------------|------------------------|------------------------|
D|------------------------|------------------------|------------------------|------------------------|
A|------------------------|------------------------|------------------------|------------------------|
D|7/9---9---9---7/9-9---9-|7/9---9---9---7/9-9---9-|7/9---9---9---7/9-9---9-|7/9---9---9-x-x-x-x-x-x-|


G|------------------------|------------------------|------------------------|------------------------|
D|------------------------|------------------------|------------------------|------------------------|
A|------------------------|------------------------|------------------------|------------------------|
D|7/10--10--10-7/10-10--10|7/10--10--10-7/10-10--10|7/10--10--10-7/10-10--10|7/10--10-10-x-x-x-x-x-x-| 


G|------------------------|------------------------|
D|------------------------|------------------------|
A|------------------------|------------------------|
D|------------------------|--------------12\-------|


[Bridge]

G|------------------------|------------------------|------------------------|------------------------|
D|------------------------|------------------------|------------------------|------------------------|
A|2-2-2-2-2-2-2-2-2-2-2-2-|2-2-2-2-2-2-5-5-5-5-----|------------------------|------------------------|
D|------------------------|------------------------|5-5-5-5-5-5-5-5-5-5-5-5-|5-5-5-5-5-5-2-2-2-2-2-2-|


G|------------------------|------------------------|------------------------|------------------------|
D|------------------------|------------------------|------------------------|2-2-2-2-2-2-2-2-2-2-2-2-|
A|2-2-2-2-2-2-2-2-2-2-2-2-|2-2-2-2-2-2-5-5-5-5-5-5-|------------------------|------------------------|
D|------------------------|------------------------|5-5-5-5-5-5-5-5-5-5-5-5-|------------------------|


G|------------------------|------------------------|------------------------|------------------------|
D|------------------------|------------------------|------------------------|------------------------|
A|2-2-2-2-2-2-2-2-2-2-2-2-|2-2-2-2-2-2-5-5-5-5-5-5-|------------------------|------------------------|
D|------------------------|------------------------|5-5-5-5-5-5-5-5-5-5-5-5-|2-2-2-2-2-2-2-2-2-2-2-2-


G|------------------------|------------------------|------------------------|------------------------|
D|------------------------|------------------------|------------------------|------------------------|
A|2-2-2-2-2-2-2-2-2-2-2-2-|2-2-2-2-2-2-5-5-5-5-----|------------------------|------------------------|
D|------------------------|------------------------|5-5-5-5-5-5-5-5-5-5-5-5-|5-5-5-5-5-5-2-2-2-12\---|


[Chorus]

G|------------------------|------------------------|------------------------|------------------------|
D|------------------------|------------------2-2-2-|------------------------|5-5-5-5-5-5-5-5-5-5-5-5-|
A|2-2-2-2---2-2-2-2-2---2-|3-3-3-3---3-3-3-3-------|------------------------|------------------------|
D|------------------------|------------------------|2-2-2-2---2-2-2-2-2---2-|------------------------|


G|------------------------|------------------------|------------------------|------------------------|
D|------------------------|------------------2-2-2-|------------------------|------------------------|
A|2-2-2-2-2-2-2-2-2-2-2-2-|3-3-3-3-3-3-3-3-3-------|------------------------|5-5-5-5-5-5-5-5-5-5-5-5-|
D|------------------------|------------------------|2-2-2-2-2-2-2-2-2-2-2-2-|------------------------|

        PM----------------       PM----------------
G|------------------------|------------------------|------------------------|------------------------|
D|------2-2-2-2-2-2-2-2-2-|------2-2-2-2-2-2-2-2-2-|--------2-3-5-5-5-5-5-5-|5-5-5-5-5-5-5-5-5-5-5-5-|
A|2-2-2-------------------|2-2-2-------------------|3-3-3-3-----------------|------------------------|
D|------------------------|------------------------|------------------------|------------------------|

        PM----------------       PM----------------
G|------------------------|------------------------|------------------------|------------------------|
D|------2-2-2-2-2-2-2-2-2-|------2-2-2-2-2-2-2-2-2-|--------2-3-5-5-5-5-5-5-|------------3-----2-----|
A|2-2-2-------------------|2-2-2-------------------|3-3-3-3-----------------|3-----2-----------------|
D|------------------------|------------------------|------------------------|------------------------|


[Finale]

G|------------------------|------------------------|------------------------|------------------------|
D|------------------------|------------------------|------------------------|------------------------|
A|------------------------|------------------------|------------------------|------------------------|
D|7/9---9---9---7/9-9---9-|7/9---9---9---7/9-9---9-|7/9---9---9---7/9-9---9-|7/9---9---9-x-x-x-x-x-x-|


G|------------------------|------------------------|------------------------|------------------------|
D|------------------------|------------------------|------------------------|------------------------|
A|------------------------|------------------------|------------------------|------------------------|
D|7/9---9---9---7/9-9---9-|7/9---9---9---7/9-9---9-|7/9---9---9---7/9-9---9-|7/9---9---9-x-x-x-x-x-x-|



***********************************
| /   Slide up
| \   Slide down
| PM  Palm mute
| x   Dead note
***********************************

            
            
Suggest correction
Creating personal tab
Creating personal tab
You can edit any tab online and save it as your Personal.

You can edit, replace or remove any tab part or add personal notes – all changes will be seen only by you.

Personal tabs can be accessed anytime from any device, even offline.
Learn more »
Give kudos to tab author, rate the tab!
1 2 3 4 5
comments
print report bad tab
guest
You may want to rate the tab now too:
select rating
Wanna post a correction for this tab? Suggest correction