Oops, an error
Loading. Please wait.

Natural Born Farmer tab

version 1
version 1

Whole song

Interactive

154 views 1 this week
no commentswrite comment
1 2 3 4 5
3 more votes to show rating
add to favorites
×
Save as Personal and add changes to this tab that will be seen only by you. Learn more ›
×
You can save this tab as Personal to edit and correct it or add notes. All changes will be seen only by you. Learn more »
launch autoscroll
font size
0
reset
how to read this tab
guitar tuner
edit
Autoscroll
slow
fast
+/-
esc
set tempo
stop
Bass included to show how the parts interlock.


[Intro]

E|------------------------------------|------------------------------------|
B|------------------------------------|------------------------------------|
G|------------------------------------|------------------------------------|
D|0-----------------------------------|------------------------------------|
A|0-----------------------------------|------------------------------------|
D|0-----------------------------------|------------------------------------|
 |
G|------------------------------------|------------------------------------|
D|------------------------------------|------------------------------------|
A|5--5--5--5--5--5--5--5--5--5--5--5--|5--5--5--5--5--5--5--5--5--5--5--5--|
D|0--0--0--0--0--0--0--0--0--0--0--0--|0--0--0--0--0--0--0--0--0--0--0--0-/|


E|------------------------------------|------------------------------------|
B|------------------------------------|------------------------------------|
G|------------------------------------|------------------------------------|
D|0-----------------------------------|0///////////////////////////////////|
A|0-----------------------------------|0///////////////////////////////////|
D|0-----------------------------------|0///////////////////////////////////|
 |                                     Gradually slide up the neck
G|------------------------------------|------------------------------------|
D|------------------------------------|------------------------------------|
A|------------------------------------|------------------------------------|
D|12-12-12-12-12-12-12-12-12-12-12-12-|12-12-12-12-12-12-12-12-12-12-12-12-|


[Verse]

E|------------------------------------|------------------------------------|
B|------------------------------------|------------------------------------|
G|------------------------------------|------------------------------------|
D|0-----0-----------------------------|------------------------------------|
A|0-----0-----------------------------|------------------------------------|
D|0-----0-----------------------------|------------------------------------|
 |
G|------------------------------------|------------------------------------|
D|------------------------------------|------------------------------------|
A|------------------------------------|------------------------------------|
D|0-----0-----------------------------|------------------------------------|

E|------------------------------------|------------------------------------|
B|------------------------------------|------------------------------------|
G|------------------------------------|------------------------------------|
D|------------------------------------|------------------------------------|
A|------------------------------------|------------------------------------|
D|------------------------------------|------------------------------------|
 |
G|------------------------------------|------------------------------------|
D|------------------------------------|------------------------------------|
A|------------------------------------|------------------------------------|
D|------------------------------------|------------------------------------|

E|------------------------------------|------------------------------------|
B|------------------------------------|------------------------------------|
G|------------------------------------|------------------------------------|
D|0-----0-----------------------------|------------------------------------|
A|0-----0-----------------------------|------------------------------------|
D|0-----0-----------------------------|------------------------------------|
 |
G|------------------------------------|------------------------------------|
D|------------------------------------|------------------------------------|
A|------------------------------------|------------------------------------|
D|0-----0-----------------------------|------------------------------------|


E|------------------------------------|------------------------------------|
B|------------------------------------|------------------------------------|
G|------------------------------------|------------------------------------|
D|------------------------------------|------------------------------------|
A|------------------------------------|------------------------------------|
D|------------------------------------|------------------------------------|
 |
G|------------------------------------|------------------------------------|
D|------------------------------------|------------------------------------|
A|------------------------------------|------------------------------------|
D|------------------------------------|------------------------------------|


E|---------21----------19----------21-|---------19----------21----------19-|
B|------------------------------------|------------------------------------|
G|------------------------------------|------------------------------------|
D|0-----0-----------------------------|------------------------------------|
A|0-----0-----------------------------|------------------------------------|
D|0-----0-----------------------------|------------------------------------|
 |
G|------------------------------------|------------------------------------|
D|------------------------------------|------------------------------------|
A|------------------------------------|------------------------------------|
D|0-----0-----------------------------|------------------------------------|

E|---------21----------19----------21-|---------19----------21----------19-|
B|------------------------------------|------------------------------------|
G|------------------------------------|------------------------------------|
D|0-----0-----------------------------|0-----0-----------------------------|
A|0-----0-----------------------------|0-----0-----------------------------|
D|0-----0-----------------------------|0-----0-----------------------------|
 |
G|------------------------------------|------------------------------------|
D|------------------------------------|------------------------------------|
A|------------------------------------|------------------------------------|
D|0-----0-----------------------------|0-----0-----------------------------|

E|------------------------------------|------------------------------------|
B|------------------------------------|------------------------------------|
G|------------------------------------|------------------------------------|
D|0-----11----0-----11----0-----11----|0-----------------------------------|
A|0-----11----0-----11----0-----11----|0-----------------------------------|
D|0-----11----0-----11----0-----11----|0-----------------------------------|
 |
G|------------------------------------|------------------------------------|
D|------------------------------------|------------------------------------|
A|------------------------------------|------------------------------------|
D|0-----11----0-----11----0-----11----|0-----------------------------------|


[Chorus]

E|------------------------------------|------------------------------------|
B|------------------------------------|------------------------------------|
G|------------------------------------|------------------------------------|
D|------------------12-------9--------|11-------7--------9-----------------|
A|------------------------------------|---------------------------9--------|
D|------------------------------------|------------------------------------|
 |
G|------------------------------------|------------------------------------|
D|------------------------------------|11-11-11-11-11-11-------------------|
A|------------------------------9--12-|------------------12-12-12-12-12-12-|
D|12-12-12-12-12-12-12-12-12-12-------|------------------------------------|


E|------------------------------------|------------------------------------|
B|------------------------------------|------------------------------------|
G|------------------------------------|------------------------------------|
D|------------------------------------|------------------------------------|
A|7-----------------9-----------------|------------------------------------|
D|------------------------------------|------------------------------------|
 |
G|------------------------------------|------------------9--9--9-----------|
D|---------------------------------7--|11-11-11-11-11-11-------------------|
A|7--7--7--7--7--7--7--7--7--7--9-----|---------------------------12-12-12-|
D|------------------------------------|------------------------------------|


E|------------------------------------|------------------------------------|
B|------------------------------------|------------------------------------|
G|------------------------------------|------------------------------------|
D|------------------12-------9--------|11-------7--------9-----------------|
A|------------------------------------|---------------------------9--------|
D|------------------------------------|------------------------------------|
 |
G|------------------------------------|------------------------------------|
D|---------------------------------9--|11-11-11-11-11-11-7--7--7--7--7--7--|
A|10-10-10-10-10-10-10-10-10-10-12----|------------------------------------|
D|------------------------------------|------------------------------------|


E|------------------------------------|------------------------------------|
B|------------------------------------|------------------------------------|
G|------------------------------------|------------------------------------|
D|------------------------------------|------------------------------------|
A|7-----------------9-----------------|4-----------------------------------|
D|------------------------------------|------------------------------------|
 |
G|------------------------------------|------------------------------------|
D|4--4--4--4--4--4--4--4--4--4--4--4--|4--4--4--4--4--4--------------------|
A|------------------------------------|------------------------------------|
D|------------------------------------|------------------0--0--0--0--0--0--|

E|------------------------------------|------------------------------------|
B|------------------------------------|------------------------------------|
G|------------------12-------9--------|11-------7--------9-----------------|  Harmonized parts arranged
D|------------------12-------9--------|11-------7--------9--------9--------|  for one guitar
A|------------------------------------|---------------------------9--------|
D|------------------------------------|------------------------------------|
 |                 
G|------------------------------------|------------------------------------|
D|------------------------------------|11-11-11-11-11-11-------------------|
A|------------------------------9--12-|------------------12-12-12-12-12-12-|
D|12-12-12-12-12-12-12-12-12-12-------|------------------------------------|


E|------------------------------------|------------------------------------|
B|------------------------------------|------------------------------------|
G|------------------------------------|------------------------------------|
D|7-----------------9-----------------|------------------------------------|
A|7-----------------9-----------------|------------------------------------|
D|------------------------------------|------------------------------------|
 |
G|------------------------------------|------------------9--9--9-----------|
D|---------------------------------7--|11-11-11-11-11-11-------------------|
A|7--7--7--7--7--7--7--7--7--7--9-----|---------------------------12-12-12-|
D|------------------------------------|------------------------------------|


E|------------------------------------|------------------------------------|
B|------------------------------------|------------------------------------|
G|------------------12-------9--------|11-------7--------9-----------------|
D|------------------12-------9--------|11-------7--------9--------9--------|
A|------------------------------------|---------------------------9--------|
D|------------------------------------|------------------------------------|
 |
G|------------------------------------|------------------------------------|
D|---------------------------------9--|11-11-11-11-11-11-7--7--7--7--7--7--|
A|10-10-10-10-10-10-10-10-10-10-12----|------------------------------------|
D|------------------------------------|------------------------------------|


E|------------------------------------|------------------------------------|
B|------------------------------------|------------------------------------|
G|------------------------------------|------------------------------------|
D|7-----------------9-----------------|4-----------------------------------|
A|7-----------------9-----------------|4-----------------------------------|
D|------------------------------------|------------------------------------|
 |
G|------------------------------------|------------------------------------|
D|4--4--4--4--4--4--4--4--4--4--4--4--|4--4--4--4--4--4--------------------|
A|------------------------------------|------------------------------------|
D|------------------------------------|------------------0--0--0--0--0--0--|


[Verse]

E|------------------------------------|------------------------------------|
B|------------------------------------|------------------------------------|
G|------------------------------------|------------------------------------|
D|0-----0-----------------------------|------------------------------------|
A|0-----0-----------------------------|------------------------------------|
D|0-----0-----------------------------|------------------------------------|
 |
G|------------------------------------|------------------------------------|
D|------------------------------------|------------------------------------|
A|------------------------------------|------------------------------------|
D|0-----0-----------------------------|------------------------------------|

E|------------------------------------|------------------------------------|
B|------------------------------------|------------------------------------|
G|------------------------------------|------------------------------------|
D|------------------------------------|------------------------------------|
A|------------------------------------|------------------------------------|
D|------------------------------------|------------------------------------|
 |
G|------------------------------------|------------------------------------|
D|------------------------------------|------------------------------------|
A|------------------------------------|------------------------------------|
D|------------------------------------|------------------------------------|

E|------------------------------------|------------------------------------|
B|------------------------------------|------------------------------------|
G|------------------------------------|------------------------------------|
D|0-----0-----------------------------|------------------------------------|
A|0-----0-----------------------------|------------------------------------|
D|0-----0-----------------------------|------------------------------------|
 |
G|------------------------------------|------------------------------------|
D|------------------------------------|------------------------------------|
A|------------------------------------|------------------------------------|
D|0-----0-----------------------------|------------------------------------|

                                                         Hit strings behind the nut!
E|------------------------------------|------------------#-----------------|
B|------------------------------------|------------------#-----------------|
G|------------------------------------|------------------#-----------------|
D|------------------------------------|------------------#-----------------|
A|------------------------------------|------------------#-----------------|
D|------------------------------------|------------------#-----------------|
 |
G|------------------------------------|------------------------------------|
D|------------------------------------|------------------------------------|
A|------------------------------------|------------------------------------|
D|------------------------------------|------------------------------------|

E|---------21----------19----------21-|---------19----------21----------19-|
B|------------------------------------|------------------------------------|
G|------------------------------------|------------------------------------|
D|0-----0-----------------------------|------------------------------------|
A|0-----0-----------------------------|------------------------------------|
D|0-----0-----------------------------|------------------------------------|
 |
G|------------------------------------|------------------------------------|
D|------------------------------------|------------------------------------|
A|------------------------------------|------------------------------------|
D|0-----0-----------------------------|------------------------------------|

E|---------21----------19----------21-|---------19----------21----------19-|
B|------------------------------------|------------------------------------|
G|------------------------------------|------------------------------------|
D|0-----0-----------------------------|0-----0-----------------------------|
A|0-----0-----------------------------|0-----0-----------------------------|
D|0-----0-----------------------------|0-----0-----------------------------|
 |
G|------------------------------------|------------------------------------|
D|------------------------------------|------------------------------------|
A|------------------------------------|------------------------------------|
D|0-----0-----------------------------|0-----0-----------------------------|

E|------------------------------------|------------------------------------|
B|------------------------------------|------------------------------------|
G|------------------------------------|------------------------------------|
D|0-----11----0-----11----0-----11----|0-----------------------------------|
A|0-----11----0-----11----0-----11----|0-----------------------------------|
D|0-----11----0-----11----0-----11----|0-----------------------------------|
 |
G|------------------------------------|------------------------------------|
D|------------------------------------|------------------------------------|
A|------------------------------------|------------------------------------|
D|0-----11----0-----11----0-----11----|0-----------------------------------|


[Chorus]

E|------------------------------------|------------------------------------|
B|------------------------------------|------------------------------------|
G|------------------------------------|------------------------------------|
D|------------------12-------9--------|11-------7--------9-----------------|
A|------------------------------------|---------------------------9--------|
D|------------------------------------|------------------------------------|
 |
G|------------------------------------|------------------------------------|
D|------------------------------------|11-11-11-11-11-11-------------------|
A|------------------------------9--12-|------------------12-12-12-12-12-12-|
D|12-12-12-12-12-12-12-12-12-12-------|------------------------------------|


E|------------------------------------|------------------------------------|
B|------------------------------------|------------------------------------|
G|------------------------------------|------------------------------------|
D|------------------------------------|------------------------------------|
A|7-----------------9-----------------|------------------------------------|
D|------------------------------------|------------------------------------|
 |
G|------------------------------------|------------------9--9--9-----------|
D|---------------------------------7--|11-11-11-11-11-11-------------------|
A|7--7--7--7--7--7--7--7--7--7--9-----|---------------------------12-12-12-|
D|------------------------------------|------------------------------------|


E|------------------------------------|------------------------------------|
B|------------------------------------|------------------------------------|
G|------------------------------------|------------------------------------|
D|------------------12-------9--------|11-------7--------9-----------------|
A|------------------------------------|---------------------------9--------|
D|------------------------------------|------------------------------------|
 |
G|------------------------------------|------------------------------------|
D|---------------------------------9--|11-11-11-11-11-11-7--7--7--7--7--7--|
A|10-10-10-10-10-10-10-10-10-10-12----|------------------------------------|
D|------------------------------------|------------------------------------|


E|------------------------------------|------------------------------------|
B|------------------------------------|------------------------------------|
G|------------------------------------|------------------------------------|
D|------------------------------------|------------------------------------|
A|7-----------------9-----------------|4-----------------------------------|
D|------------------------------------|------------------------------------|
 |
G|------------------------------------|------------------------------------|
D|4--4--4--4--4--4--4--4--4--4--4--4--|4--4--4--4--4--4--------------------|
A|------------------------------------|------------------------------------|
D|------------------------------------|------------------0--0--0--0--0--0--|

E|------------------------------------|------------------------------------|
B|------------------------------------|------------------------------------|
G|------------------12-------9--------|11-------7--------9-----------------|
D|------------------12-------9--------|11-------7--------9--------9--------|
A|------------------------------------|---------------------------9--------|
D|------------------------------------|------------------------------------|
 |
G|------------------------------------|------------------------------------|
D|------------------------------------|11-11-11-11-11-11-------------------|
A|------------------------------9--12-|------------------12-12-12-12-12-12-|
D|12-12-12-12-12-12-12-12-12-12-------|------------------------------------|


E|------------------------------------|------------------------------------|
B|------------------------------------|------------------------------------|
G|------------------------------------|------------------------------------|
D|7-----------------9-----------------|------------------------------------|
A|7-----------------9-----------------|------------------------------------|
D|------------------------------------|------------------------------------|
 |
G|------------------------------------|------------------9--9--9-----------|
D|---------------------------------7--|11-11-11-11-11-11-------------------|
A|7--7--7--7--7--7--7--7--7--7--9-----|---------------------------12-12-12-|
D|------------------------------------|------------------------------------|


E|------------------------------------|------------------------------------|
B|------------------------------------|------------------------------------|
G|------------------12-------9--------|11-------7--------9-----------------|
D|------------------12-------9--------|11-------7--------9--------9--------|
A|------------------------------------|---------------------------9--------|
D|------------------------------------|------------------------------------|
 |
G|------------------------------------|------------------------------------|
D|---------------------------------9--|11-11-11-11-11-11-7--7--7--7--7--7--|
A|10-10-10-10-10-10-10-10-10-10-12----|------------------------------------|
D|------------------------------------|------------------------------------|


E|------------------------------------|------------------------------------|
B|------------------------------------|------------------------------------|
G|------------------------------------|------------------------------------|
D|7-----------------9-----------------|4-----------------------------------|
A|7-----------------9-----------------|4-----------------------------------|
D|------------------------------------|------------------------------------|
 |
G|------------------------------------|------------------------------------|
D|4--4--4--4--4--4--4--4--4--4--4--4--|4--4--4--4--4--4--------------------|
A|------------------------------------|------------------------------------|
D|------------------------------------|------------------0--0--0--0--0--0--|


[Bridge]

E|------------------------------------|------------------------------------|
B|------------------------------------|------------------------------------|
G|x--x--x--x--x--x--x--x--x--x--x--x--|x--x--x--x--x--x--x--x--x--x--x--x--|
D|x--x--x--x--x--x--x--x--x--x--x--x--|x--x--x--x--x--x--x--x--x--x--x--x--|
A|x--x--x--x--x--x--x--x--x--x--x--x--|x--x--x--x--x--x--x--x--x--x--x--x--|
D|------------------------------------|------------------------------------|
 |
G|------------------------------------|------------------------------------|
D|------------------------------------|------------------------------------|
A|5--5--5--5--5--5--5--5--5--5--5--5--|5--5--5--5--5--5--5--5--5--5--5--5--|
D|0--0--0--0--0--0--0--0--0--0--0--0--|0--0--0--0--0--0--0--0--0--0--0--0--|
  PM                                   PM

E|------------------------------------|------------------------------------|
B|------------------------------------|------------------------------------|
G|x--x--x--x--x--x--x--x--x--x--x--x--|x--x--x--x--x--x--x--x--x--x--x--x--|
D|x--x--x--x--x--x--x--x--x--x--x--x--|x--x--x--x--x--x--x--x--x--x--x--x--|
A|x--x--x--x--x--x--x--x--x--x--x--x--|x--x--x--x--x--x--x--x--x--x--x--x--|
D|------------------------------------|------------------------------------|
 |
G|------------------------------------|------------------------------------|
D|------------------------------------|------------------------------------|
A|5--5--5--5--5--5--5--5--5--5--5--5--|5--5--5--5--5--5--5--5--5--5--5--5--|
D|0--0--0--0--0--0--0--0--0--0--0--0--|0--0--0--0--0--0--0--0--0--0--0--0--|
  PM                                   PM

E|------------------------------------|------------------------------------|
B|------------------------------------|------------------------------------|
G|x--x--x--x--x--x--x--x--x--x--x--x--|x--x--x--x--x--x--x--x--x--x--x--x--|
D|x--x--x--x--x--x--x--x--x--x--x--x--|x--x--x--x--x--x--x--x--x--x--x--x--|
A|x--x--x--x--x--x--x--x--x--x--x--x--|x--x--x--x--x--x--x--x--x--x--x--x--|
D|------------------------------------|------------------------------------|
 |
G|------------------------------------|------------------------------------|
D|------------------------------------|------------------------------------|
A|5--5--5--5--5--5--5--5--5--5--5--5--|5--5--5--5--5--5--5--5--5--5--5--5--|
D|0--0--0--0--0--0--0--0--0--0--0--0--|0--0--0--0--0--0--0--0--0--0--0--0--|
  PM                                   PM
 
E|------------------------------------|------------------------------------|
B|------------------------------------|------------------------------------|
G|x--x--x--x--x--x--x--x--x--x--x--x--|------------------------------------|
D|x--x--x--x--x--x--x--x--x--x--x--x--|1///////////////////////////////////|
A|x--x--x--x--x--x--x--x--x--x--x--x--|1///////////////////////////////////|
D|------------------------------------|1///////////////////////////////////|
 |                                     Gradually slide up the neck
G|------------------------------------|------------------------------------|
D|------------------------------------|------------------------------------|
A|5--5--5--5--5--5--5--5--5--5--5--5--|6b-6b-6b-6b-6b-6b-6b-6b-6b-6b-6b-6b-|
D|0--0--0--0--0--0--0--0--0--0--0--0--|------------------------------------|
  PM                                   Gradually bend note a 1/4 tone across the bar

[Chorus]

E|------------------------------------|------------------------------------|
B|------------------------------------|------------------------------------|
G|------------------------------------|------------------------------------|
D|------------------12-------9--------|11-------7--------9-----------------|
A|------------------------------------|---------------------------9--------|
D|------------------------------------|------------------------------------|
 |
G|------------------------------------|------------------------------------|
D|------------------------------------|11-11-11-11-11-11-------------------|
A|------------------------------9--12-|------------------12-12-12-12-12-12-|
D|12-12-12-12-12-12-12-12-12-12-------|------------------------------------|


E|------------------------------------|------------------------------------|
B|------------------------------------|------------------------------------|
G|------------------------------------|------------------------------------|
D|------------------------------------|------------------------------------|
A|7-----------------9-----------------|------------------------------------|
D|------------------------------------|------------------------------------|
 |
G|------------------------------------|------------------9--9--9-----------|
D|---------------------------------7--|11-11-11-11-11-11-------------------|
A|7--7--7--7--7--7--7--7--7--7--9-----|---------------------------12-12-12-|
D|------------------------------------|------------------------------------|


E|------------------------------------|------------------------------------|
B|------------------------------------|------------------------------------|
G|------------------------------------|------------------------------------|
D|------------------12-------9--------|11-------7--------9-----------------|
A|------------------------------------|---------------------------9--------|
D|------------------------------------|------------------------------------|
 |
G|------------------------------------|------------------------------------|
D|---------------------------------9--|11-11-11-11-11-11-7--7--7--7--7--7--|
A|10-10-10-10-10-10-10-10-10-10-12----|------------------------------------|
D|------------------------------------|------------------------------------|


E|------------------------------------|------------------------------------|
B|------------------------------------|------------------------------------|
G|------------------------------------|------------------------------------|
D|------------------------------------|------------------------------------|
A|7-----------------9-----------------|4-----------------------------------|
D|------------------------------------|------------------------------------|
 |
G|------------------------------------|------------------------------------|
D|4--4--4--4--4--4--4--4--4--4--4--4--|4--4--4--4--4--4--------------------|
A|------------------------------------|------------------------------------|
D|------------------------------------|------------------0--0--0--0--0--0--|

E|------------------------------------|------------------------------------|
B|------------------------------------|------------------------------------|
G|------------------12-------9--------|11-------7--------9-----------------|
D|------------------12-------9--------|11-------7--------9--------9--------|
A|------------------------------------|---------------------------9--------|
D|------------------------------------|------------------------------------|
 |
G|------------------------------------|------------------------------------|
D|------------------------------------|11-11-11-11-11-11-------------------|
A|------------------------------9--12-|------------------12-12-12-12-12-12-|
D|12-12-12-12-12-12-12-12-12-12-------|------------------------------------|


E|------------------------------------|------------------------------------|
B|------------------------------------|------------------------------------|
G|------------------------------------|------------------------------------|
D|7-----------------9-----------------|------------------------------------|
A|7-----------------9-----------------|------------------------------------|
D|------------------------------------|------------------------------------|
 |
G|------------------------------------|------------------9--9--9-----------|
D|---------------------------------7--|11-11-11-11-11-11-------------------|
A|7--7--7--7--7--7--7--7--7--7--9-----|---------------------------12-12-12-|
D|------------------------------------|------------------------------------|


E|------------------------------------|------------------------------------|
B|------------------------------------|------------------------------------|
G|------------------12-------9--------|11-------7--------9-----------------|
D|------------------12-------9--------|11-------7--------9--------9--------|
A|------------------------------------|---------------------------9--------|
D|------------------------------------|------------------------------------|
 |
G|------------------------------------|------------------------------------|
D|---------------------------------9--|11-11-11-11-11-11-7--7--7--7--7--7--|
A|10-10-10-10-10-10-10-10-10-10-12----|------------------------------------|
D|------------------------------------|------------------------------------|


E|------------------------------------|------------------------------------|
B|------------------------------------|------------------------------------|
G|------------------------------------|------------------------------------|
D|7-----------------9-----------------|4-----------------------------------|
A|7-----------------9-----------------|4-----------------------------------|
D|------------------------------------|------------------------------------|
 |
G|------------------------------------|------------------------------------|
D|4--4--4--4--4--4--4--4--4--4--4--4--|4--4--4--4--4--4--------------------|
A|------------------------------------|------------------------------------|
D|------------------------------------|------------------0--0--0--0--0--0--|


[End]

E|---------21----------19----------21-|---------19----------21----------19-|
G|------------------------------------|------------------------------------|
D|0-----0-----------------------------|------------------------------------|
A|0-----0-----------------------------|------------------------------------|
D|0-----0-----------------------------|------------------------------------|
 |                                                                 Fade out                            
G|------------------------------------|------------------------------------|
D|------------------------------------|------------------------------------|
A|5-----5-----------------------------|------------------------------------|
D|0-----0-----------------------------|------------------------------------|



***********************************
| /   Slide up
| \   Slide down
| #   Rake strings behind the nut
| x   Dead note
| b   Bend
***********************************

            
            
Suggest correction
Creating personal tab
Creating personal tab
You can edit any tab online and save it as your Personal.

You can edit, replace or remove any tab part or add personal notes – all changes will be seen only by you.

Personal tabs can be accessed anytime from any device, even offline.
Learn more »
Give kudos to tab author, rate the tab!
1 2 3 4 5
comments
print report bad tab
guest
You may want to rate the tab now too:
select rating
Wanna post a correction for this tab? Suggest correction