Oops, an error
Loading. Please wait.

Stations Of The New Cross tab

46 views 1 this week
no commentswrite comment
1 2 3 4 5
3 more votes to show rating
add to favorites
×
Save as Personal and add changes to this tab that will be seen only by you. Learn more ›
×
You can save this tab as Personal to edit and correct it or add notes. All changes will be seen only by you. Learn more »
launch autoscroll
font size
0
reset
how to read this tab
guitar tuner
edit
Autoscroll
slow
fast
+/-
esc
set tempo
stop
[Intro]

E|------------|
B|------------|
G|------------|
D|4N----------|
A|xN----------|
D|4N----------|


[Verse]

Keyboard
E|------------|------------|------------|------------|
B|------------|------------|------------|------------|
G|14----------|16----------|-9----------|7-----------|
D|16----------|14----------|11----------|9-----------|
A|------------|------------|------------|------------|
D|------------|------------|------------|------------|


E|------------|14----------|------------|------------|
B|------------|------------|------------|------------|
G|11----------|------------|------------|------------|
D|11----------|------------|------------|------------|
A|------------|------------|------------|------------|
D|------------|------------|------------|------------|


E|------------|------------|------------|------------|
B|------------|------------|------------|------------|
G|14----------|16----------|-9----------|7-----------|
D|16----------|14----------|11----------|9-----------|
A|------------|------------|------------|------------|
D|------------|------------|------------|------------|


E|------------|14----------|------------|------------|
B|------------|------------|------------|------------|
G|11----------|------------|------------|------------|
D|11----------|------------|------------|------------|
A|------------|------------|------------|------------|
D|----12--14--|------------|------------|------------|


[Chorus] 

  Shift to 4/4
  Keyboard
E|7---------------|----------------|----------------|----------------|
B|--5---5---------|------------3---|----0-----------|----------------|
G|-------4--------|------0--2------|----------------|----------------|
D|----------------|----------------|----------------|----------------|
A|----------------|----------------|----------------|----------------|
D|----------------|----------------|----------------|----------------|
 |Guitar
E|7---7---7---7---|7---7---7---7---|7---7---7---7---|7---7---7---7---|
B|--8---8---8---8-|--8---8---8---8-|--8---8---8---8-|--8---8---8---8-|
G|---9---9---9---9|---9---9---9---9|---9---9---9---9|---9---9---9---9|
D|----------------|----------------|----------------|----------------|
A|----------------|----------------|----------------|----------------|
D|----------------|----------------|----------------|----------------|


E|7---------------|----------------|----------------|----------------|
B|--5---5---------|------------3---|----0-----------|----------------|
G|-------4--------|------0--2------|----------------|----------------|
D|----------------|----------------|----------------|----------------|
A|----------------|----------------|----------------|----------------|
D|----------------|----------------|----------------|----------------|
 |
E|7---7---7---7---|7---7---7---7---|7---7---7---7---|7---7---7---7---|
B|--8---8---8---8-|--8---8---8---8-|--8---8---8---8-|--8---8---8---8-|
G|---9---9---9---9|---9---9---9---9|---9---9---9---9|---9---9---9---9|
D|----------------|----------------|----------------|----------------|
A|----------------|----------------|----------------|----------------|
D|----------------|----------------|----------------|----------------|


E|----------------|
B|----------------|
G|----------------|
D|4N------2-------|
A|xN------x-------|
D|4N------2-------|


[Verse]

  3/4 time
  Keyboard
E|------------|------------|------------|------------|
B|------------|------------|------------|------------|
G|14----------|16----------|-9----------|7-----------|
D|16----------|14----------|11----------|9-----------|
A|------------|------------|------------|------------|
D|------------|------------|------------|------------|


E|------------|14----------|------------|------------|
B|------------|------------|------------|------------|
G|11----------|------------|------------|------------|
D|11----------|------------|------------|------------|
A|------------|------------|------------|------------|
D|------------|------------|------------|------------|


E|------------|------------|------------|------------|
B|------------|------------|------------|------------|
G|14----------|16----------|-9----------|7-----------|
D|16----------|14----------|11----------|9-----------|
A|------------|------------|------------|------------|
D|------------|------------|------------|------------|


E|------------|14----------|------------|------------|
B|------------|------------|------------|------------|
G|11----------|------------|------------|------------|
D|11----------|------------|------------|------------|
A|------------|------------|------------|------------|
D|----12--14--|------------|------------|------------|


[Chorus] 

  4/4
  Keyboard
E|7---------------|----------------|----------------|----------------|
B|--5---5---------|------------3---|----0-----------|----------------|
G|-------4--------|------0--2------|----------------|----------------|
D|----------------|----------------|----------------|----------------|
A|----------------|----------------|----------------|----------------|
D|----------------|----------------|----------------|----------------|
 |Guitar
E|7---7---7---7---|7---7---7---7---|7---7---7---7---|7---7---7---7---|
B|--8---8---8---8-|--8---8---8---8-|--8---8---8---8-|--8---8---8---8-|
G|---9---9---9---9|---9---9---9---9|---9---9---9---9|---9---9---9---9|
D|----------------|----------------|----------------|----------------|
A|----------------|----------------|----------------|----------------|
D|----------------|----------------|----------------|----------------|


E|7---------------|----------------|----------------|----------------|
B|--5---5---------|------------3---|----0-----------|----------------|
G|-------4--------|------0--2------|----------------|----------------|
D|----------------|----------------|----------------|----------------|
A|----------------|----------------|----------------|----------------|
D|----------------|----------------|----------------|----------------|
 |
E|7---7---7---7---|7---7---7---7---|7---7---7---7---|7---7---7---7---|
B|--8---8---8---8-|--8---8---8---8-|--8---8---8---8-|--8---8---8---8-|
G|---9---9---9---9|---9---9---9---9|---9---9---9---9|---9---9---9---9|
D|----------------|----------------|----------------|----------------|
A|----------------|----------------|----------------|----------------|
D|----------------|----------------|----------------|----------------|


[Bridge]

E|----------------|----------------|----------------|----------------|
B|----------------|----------------|----------------|----------------|
G|----------------|----------------|----------------|----------------|
D|4N--------------|----------------|----------------|--------2N------|
A|xN--------------|----------------|----------------|--------xN------|
D|4N--------------|----------------|----------------|--------2N------|


E|----------------|----------------|----------------|----------------|
B|----------------|----------------|----------------|----------------|
G|----------------|----------------|----------------|----------------|
D|4N--------------|-------/7N------|-0N-------------|--------2-------|
A|xN--------------|--------xN------|-xN-------------|--------x-------|
D|4N--------------|-------/7N------|-0N-------------|--------2-------|


E|----------------|----------------|----------------|----------------|
B|----------------|----------------|----------------|----------------|
G|----------------|----------------|----------------|----------------|
D|4---------------|-------/7-------|-0--------------|--------2-------|
A|X---------------|--------X-------|----------------|--------X-------|
D|4---------------|-------/7-------|-0--------------|--------2-------|

Second guitar 3:37
E|--------------|--------------|--------------|
B|--------------|--------------|--------------|
G|--------------|--------------|--------------|
D|--------------|11N---9N------|--------------| X8
A|9N---12N------|-----------9N-|12N-----------|
D|-----------12N|--------------|------9N---12N|

Alternate fingerings. Slide between notes.
E|--------------|--------------|--------------|
B|--------------|--------------|--------------|
G|--------------|--------------|--------------|
D|--------------|--------------|--------------| X8
A|9N---12N---5N-|16N--14N---9N-|12N---2N---7N-|
D|--------------|--------------|--------------|


Third Guitar enters 3:59
E|-------------|9----9----9----9----|9----9----10----10----|10---10---10---10----|
B|-------10~---|-10---10---10---10--|-10---10----10----10--|--10---10---10---10--|
G|7h9/11-------|---11---11---11---11|---11---11----11----11|----11---11---11---11|
D|-------------|--------------------|----------------------|---------------------|
A|-------------|--------------------|----------------------|---------------------|
D|-------------|--------------------|----------------------|---------------------|

E|9----9----9----9----|9----9----10----10----|10---10---10---10----|9----9----9----------|
B|-10---10---10---10--|-10---10----10----10--|--10---10---10---10--|-10---10---10--10--10|
G|---11---11---11---11|---11---11----11----11|----11---11---11---11|---11---11---11--11--|
D|--------------------|----------------------|---------------------|---------------------|
A|--------------------|----------------------|---------------------|---------------------|
D|--------------------|----------------------|---------------------|---------------------|


E|9----9----10----10----|10----10----10----10--|
B|-10---10----10-----10-|---10----10----10-----|
G|---11---11----11------|----------------------|
D|----------------------|----------------------|
A|----------------------|----------------------|
D|----------------------|----------------------|
 |Keyboard comes back in.
E|----------------------|----------------------|
B|----------------------|----------------------|
G|----------------------|9---------------------|
D|----------------------|9---------------------|
A|----------------------|7---------------------|
D|----------------------|----------------------|


[Chorus]

  Keyboard
E|7---------------|----------------|----------------|----------------|
B|--5---5---------|------------3---|----0-----------|----------------|
G|-------4--------|------0--2------|----------------|----------------|
D|----------------|----------------|----------------|----------------|
A|----------------|----------------|----------------|----------------|
D|----------------|----------------|----------------|----------------|
 |Guitar
E|7---7---7---7---|7---7---7---7---|7---7---7---7---|7---7---7---7---|
B|--8---8---8---8-|--8---8---8---8-|--8---8---8---8-|--8---8---8---8-|
G|---9---9---9---9|---9---9---9---9|---9---9---9---9|---9---9---9---9|
D|----------------|----------------|----------------|----------------|
A|----------------|----------------|----------------|----------------|
D|----------------|----------------|----------------|----------------|


E|7---------------|----------------|----------------|----------------|
B|--5---5---------|------------3---|----0-----------|----------------|
G|-------4--------|------0--2------|----------------|----------------|
D|----------------|----------------|----------------|----------------|
A|----------------|----------------|----------------|----------------|
D|----------------|----------------|----------------|----------------|
 |
E|7---7---7---7---|7---7---7---7---|7---7---7---7---|7---7---7---7---|
B|--8---8---8---8-|--8---8---8---8-|--8---8---8---8-|--8---8---8---8-|
G|---9---9---9---9|---9---9---9---9|---9---9---9---9|---9---9---9---9|
D|----------------|----------------|----------------|----------------|
A|----------------|----------------|----------------|----------------|
D|----------------|----------------|----------------|----------------|

                                                     Fade out
E|----------------|----------------|----------------|----------------|
B|----------------|----------------|----------------|----------------|
G|----------------|----------------|----------------|----------------|
D|4N--------------|----------------|----------------|----------------|
A|xN--------------|----------------|----------------|----------------|
D|4N--------------|----------------|----------------|----------------|


[End]

Bass repeats a low F# until the end.


************************************

| x  Dead note
| h  Hammer-on
| /  Slide up
| ~  Vibrato
| N  Tremolo

************************************
Suggest correction
Creating personal tab
Creating personal tab
You can edit any tab online and save it as your Personal.

You can edit, replace or remove any tab part or add personal notes – all changes will be seen only by you.

Personal tabs can be accessed anytime from any device, even offline.
Learn more »
Give kudos to tab author, rate the tab!
1 2 3 4 5
comments
print report bad tab
guest
You may want to rate the tab now too:
select rating
Wanna post a correction for this tab? Suggest correction