Oops, an error
Loading. Please wait.

Baby Its Cold Outside Bass Tab

11,351 views 114 this week
2 commentsread comments
1 2 3 4 5
x 4
add to favorites
launch autoscroll
font size
0
reset
guitar tuner
Autoscroll
slow
fast
+/-
esc
set tempo
stop
Help us to improve Ultimate-Guitar.com Take our survey!
×
Author
Difficulty
intermediate
Hey guys~ This is my first tab ever, so it might not be the best~! I had to learn this 
choir, so I thought I would share it with everyone here as well. Enjoy~!
-----------------------------------------------------------------------------
          BABY IT'S COLD OUTSIDE - Glee (Chris Colfer and Darren Criss)
-----------------------------------------------------------------------------

Tabbed By: Musical_madness
E-mail: Musical_madness@hotmail.com

Standard Tuning GDAE


Intro (0:00-0:09)
G|1---3---|1--1-3---|
D|--1---1-|--1----1-|
A|--------|---------|
E|--------|---------|


Verse I (0:09-0:43)
"I really Can't stay" - "I've never felt quite like this before"
G|1---1-12|3---3---|1---1---|3-3-3---|--------|------6-|--------|3------0|
D|--1-----|--1---1-|--1---1-|--------|--------|--------|6---6-6-|--3-1-1-|
A|--------|--------|--------|------13|4---4---|4---4--6|--6-----|--------|
E|--------|--------|--------|--------|--4---4-|--4-----|--------|--------|

Verse II (0:43-1:1)
"The Neighbors might faint - Baby It's COld outside"
G|1---1---|3---3---|1---1---|3---3-35|6-6-5-4-|3--3--3-|1-------|----1-1-|
D|--1---1-|--1---1-|--1---1-|--1-----|--------|--3-1--1|--4-3--1|--1--1--|
A|--------|--------|--------|--------|--------|--------|------1-|4-------|
E|--------|--------|--------|--------|--------|--------|--------|--------|

Break (1:16-1:26)
G|1---3---|1-1-3--0|
D|--1---1-|------1-|
A|--------|--------|
E|--------|--------|

Verse III (1:27-2:01)
"I simply must Go - Never such a blizzard before"
G|1---1-1-|3---3---|1---1---|3---3-35|6-------|----6---|--------|3-------|
D|--1-----|--1---11|--1---1-|--1-----|--6---6-|--6-----|6-6-6-5-|--3-1-11|
A|--------|--------|--------|--------|----4---|4-----4-|--------|--------|
E|--------|--------|--------|--------|--------|--------|--------|--------|


Verse IV (2:01-2:34)
"I've got to get home - get over that hold out"
G|1---1---|3---3---|1---1---|3---3-35|6-6-5-4-|3---3--0|1-------|----5---|
D|--1---1-|--1---1-|--1---1-|--1-----|--------|--3---1-|--4-3-3-|3-33-3--|
A|--------|--------|--------|--------|--------|--------|--------|--------|
E|--------|--------|--------|--------|--------|--------|--------|--------|

Ending(2:36-2:46)
"Oooh baby it's cold outside"
G|--------|1---3-1-|--------|
D|------1-|--11-1--|--------|
A|1-1-1---|--------|0-------|
E|--------|--------|--------|
Suggest correction
comments
print report bad tab
2 comments total.
0 reply
MusicLover626 31 Dec 24, 2010 02:46 AM

In the glee version there is no Verse 3, other than that, realy good :)

0 reply
dbzanto 10 Nov 20, 2013 07:13 PM

787gyhujikolp;.['frtgyhujolp;['
]41752

guest
You may want to rate the tab now too:
select rating
Wanna post a correction for this tab? Suggest correction