Oops, an error
Loading. Please wait.

Dont Stop Believing Bass Tab

version 1
version 1

Intro

Whole song

Interactive

5,348 views 3 this week
1 commentread comment
1 2 3 4 5
accurate
x 4
add to favorites
launch autoscroll
font size
0
reset
guitar tuner
Autoscroll
slow
fast
+/-
esc
set tempo
stop
Help us to improve Ultimate-Guitar.com Take our survey!
×
Difficulty
novice
e----------------------------------------------------------------------|
B----------------------------------------------------------------------|
G----------------------------------------------------------------------|
D----------------------------------------------------------------------|
A--------------2----4-6-4----7-6------6-7------------------------------|
E-----0----2-4-------------------5-------------------------------------|

e----------------------------------------------------------------------|
B----------------------------------------------------------------------|
G----------------------------------------------------------------------|
D----------------------------------------------------------------------|
A--------------2----4-6---------------6-7------------------------------|
E-----0----2-4----------4----2-4-5-------------------------------------|
Suggest correction
comments
print report bad tab
1 comment total.
0 reply
XxThreeCheersxX 12,100 wrote on May 19 2013, 10:16 am

This is actually supposed to be played in the Key of G
Not the Key of E, like in the original by Journey.

guest
You may want to rate the tab now too:
select rating
Wanna post a correction for this tab? Suggest correction