Oops, an error
Loading. Please wait.

Fix You Tab

8,296 views 1 this week
no commentswrite comment
1 2 3 4 5
please rate
add to favorites
launch autoscroll
font size
0
reset
how to read this tab
guitar tuner
Autoscroll
slow
fast
+/-
esc
set tempo
stop
Help us to improve Ultimate-Guitar.com Take our survey!
×
Author
-------------------------------------------------------
Artist:   Glee Cast (Matthew Morrison)
Song:     Fix You
Type:     Tab
-------------------------------------------------------

Things to mention:

e string is not played in chords for verses. It's used from bridge onwards.

EVERY chord has been carefully checked, rechecked, then checked again.
There's no lazy cut/pasting the first 4 chords throughout the entire song.

This is the full iTunes release version which is the whole song compared
to what was shown on Glee which is a cut down version to make for TV.


Capo On 1st Fret (or tune up half step)



  Intro...

E|-X-------X-------X-------X-------X-------X-------X-------X------|
B|-3-------3---3---2-------2-------3-------3---0---2-------2------|
G|-2-------2-------2-------2-------4-------4-------2-------2------|
D|-0-------0-------2-------2-------4-------4-------2-------2------|
A|-0-------0-----0-0-------0-------2-------2-------0-------0------|
E|----------------------------------------------------------------|
  (D)             (A)             (Bb)            (A)


                                                             When you...

E|-X-------X-------X-------X-------X-------X-------X-------X------|
B|-3-------3---3---2-------2-------3-------3---0---2-------2---2--|
G|-2-------2-------2-------2-------4-------4-------2-------2------|
D|-0-------0-------2-------2-------4-------4-------2-------2------|
A|-0-------0-----0-0-------0-------2-------2-------0-------0-----0|
E|----------------------------------------------------------------|
  (D)             (A)             (Bb)            (A)


  try your best but you don't succeed                        When you...

E|-X-------X-------X-------X-------X-------X-------X-------X------|
B|-3-------3---3---2-------2-------3-------3---0---2-------2------|
G|-2-------2-------2-------2-------4-------4-------2-------2------|
D|-0-------0-------2-------2-------4-------4-------2-------2------|
A|-0-------0-----0-0-------0-------2-------2-------0-------0------|
E|----------------------------------------------------------------|
  (D)             (A)             (Bb)            (A)


  get what you want but not what you need                   When you...

E|-X-------X-------X-------X-------X-------X-------X-------X------|
B|-3-------3---3---2-------2-------3-------3---0---2-------2------|
G|-2-------2-------2-------2-------4-------4-------2-------2------|
D|-0-------0-------2-------2-------4-------4-------2-------2------|
A|-0-------0-----0-0-------0-------2-------2-----0-0-------0------|
E|----------------------------------------------------------------|
  (D)             (A)             (Bb)            (A)


  feel so tired but you can't sleep                    Stuck in re...

E|-X-------X-------X-------X-------X-------X-------X-------X------|
B|-3-------3---3---2-------2-------3-------3---0---2-------2------|
G|-2-------2-------2-------2-------4-------4-------2-------2------|
D|-0-------0-------2-------2-------4-------4-------2-------2------|
A|-0-------0-----0-0-------0-------2-------2-----0-0-------0------|
E|----------------------------------------------------------------|
  (D)             (A)             (Bb)            (A)


  verse                                                      And the...

E|-X-------X-------X-------X-------X-------X-------X-------X------|
B|-3-------3---3---2-------2-------3-------3---0---2-------2------|
G|-2-------2-------2-------2-------4-------4-------2-------2------|
D|-0-------0-------2-------2-------4-------4-------2-------2------|
A|-0-------0-----0-0-------0-------2-------2-------0-------0-0----|
E|----------------------------------------------------------------|
  (D)             (A)             (Bb)            (A)


  tears come streaming down your face                        When you..

E|-X-------X-------X-------X-------X-------X-------X-------X------|
B|-3-------3---3---2-------2-------3-------3---0---2-------2------|
G|-2-------2-------2-------2-------4-------4-------2-------2------|
D|-0-------0-------2-------2-------4-------4-------2-------2------|
A|-0-------0-------0-------0-------2-------2-------0-------0------|
E|----------------------------------------------------------------|
  (D)             (A)             (Bb)            (A)


  lose something you can't replace                           When you...

E|-X-------X-------X-------X-------X-------X-------X-------X------|
B|-3-------3---3---2-------2-------3-------3---0---2-------2------|
G|-2-------2-------2-------2-------4-------4-------2-------2------|
D|-0-------0-------2-------2-------4-------4-------2-------2------|
A|-0-------0-----0-0-------0-------2-------2-----0-0-------0-0----|
E|----------------------------------------------------------------|
  (D)             (A)             (Bb)            (A)


  love someone but it goes to waste                    Could it be...

E|-X-------X-------X-------X-------X-------X-------X-------X------|
B|-3-------3---3---2-------2-------3-------3-------2-------2------|
G|-2-------2-------2-------2-------4-------4-------2-------2------|
D|-0-------0-------2-------2-------4-------4-------2-------2------|
A|-0-------0-----0-0-------0-------2-------2-------0-------0------|
E|----------------------------------------------------------------|
  (D)             (A)             (Bb)            (A)


  worse

E|-X-------X-------X-------X-------X-------X-------X-------X------|
B|-3-------3---3---2-------2-------3-------3---0---2-------2------|
G|-2-------2-------2-------2-------4-------4-------2-------2------|
D|-0-------0-------2-------2-------4-------4-------2-------2------|
A|-0-------0-----0-0-------0-------2-------2-------0-------0-0----|
E|----------------------------------------------------------------|
  (D)             (A)             (Bb)            (A)


                  Lights will guide you home

E|-X-------X-------X-------X-------X-------X-------X-------X------|
B|-0-------0-------0-------X-------2-------2-------2-------2------|
G|-0-------0-------0-------2-------2-------2-------2-------2------|
D|-0-------0-------0-------0-------2-------2-------2-------2------|
A|-2-------2-------2-------0-------0-------0-------0-------0------|
E|-3-------3-------3-------2--------------------------------------|
  (G)                     (?)     (A)


                  And ignite your bones

E|-X-------X-------X-------X-------X-------X-------X-------X------|
B|-0-------0-------0-------X-------2-------2-------2-------2------|
G|-0-------0-------0-------2-------2-------2-------2-------2------|
D|-0-------0-------0-------0-------2-------2-------2-------2------|
A|-2-------2-------2-------0-------0-------0-------0-------0------|
E|-3-------3-------3-------2--------------------------------------|
  (G)                     (?)     (A)


               And I will try to fix you

E|-X-------X-------X-------X-------X-------X-------X--------------|
B|-0-------0-------0-------X-------2-------3-------2--------------|
G|-0-------0-------0-------2-------2-------2-------2--------------|
D|-0-------0-------0-------0-------2-------2-------2--------------|
A|-2-------2-------2-------0-------0-------0-------0--------------|
E|-3-------3-------3-------2--------------------------------------|
  (G)                     (?)     (A)     (A#)    (A)




  Instrumental...

E|---------10--------------9---------------10--------------9------|
B|-----7---------------7---------------7---------------7----------|
G|----------------------------------------------------------------|
D|----------------------------------------------------------------|
A|----------------------------------------------------------------|
E|----------------------------------------------------------------|



E|---------10--------------9---------------10--------------9------|
B|-----7---10----------7---7-----------7---10----------7---9------|
G|-----7---------------7---------------7---------------7----------|
D|----------------------------------------------------------------|
A|----------------------------------------------------------------|
E|----------------------------------------------------------------|




  And high up above or down below                            When you're...

E|----------------------------------------------------------------|
B|----------------------------------------------------------------|
G|----------------------------------------------------------------|
D|----------------------------------------------------------------|
A|----------------------------------------------------------------|
E|----------------------------------------------------------------|


  too in love to let it go                                   But if you...

E|-X-------X-------X-------X-------X-------X-------X-------X------|
B|-3-------3---3---2-------2-------3-------3-------2-------2------|
G|-2-------2-------2-------2-------4-------4-------2-------2------|
D|-0-------0-------2-------2-------4-------4-------2-------2------|
A|-0-------0-----0-0-------0-------2-------2-------0-------0-0----|
E|----------------------------------------------------------------|
  (D)             (A)             (Bb)            (A)


  never try you'll never know                          Just what your...

E|-X-------X-------X-------X-------X-------X-------X-------X------|
B|-3-------3---3---2-------2-------3-------3-------2-------2------|
G|-2-------2-------2-------2-------4-------4-------2-------2------|
D|-0-------0-------2-------2-------4-------4-------2-------2------|
A|-0-------0-----0-0-------0-------2-------2-------0-------0------|
E|----------------------------------------------------------------|
  (D)             (A)             (Bb)            (A)


  worth

E|-X-------X-------X-------X-------X-------X-------X---X---X---X--|
B|-3-------3---3---2-------2-------3-------3-------2---2---2---2--|
G|-2-------2-------2-------2-------4-------4-------2---2---2---2--|
D|-0-------0-------2-------2-------4-------4-------2---2---2---2--|
A|-0-------0-----0-0-------0-------2-------2-------0---0---0---0--|
E|----------------------------------------------------------------|
  (D)             (A)             (Bb)            (A)


                  Lights will guide you home

E|-X-------X-------X-------X-------X-------X-------X-------X------|
B|-0-------0-------0-------X-------2-------2-------2-------2------|
G|-0-------0-------0-------2-------2-------2-------2-------2------|
D|-0-------0-------0-------0-------2-------2-------2-------2------|
A|-2-------2-------2-------0-------0-------0-------0-------0------|
E|-3-------3-------3-------2--------------------------------------|
  (G)                     (?)     (A)


                  And ignite your bones

E|-X-------X-------X-------X-------X-------X-------X-------X------|
B|-0-------0-------0-------X-------2-------2-------2-------2------|
G|-0-------0-------0-------2-------2-------2-------2-------2------|
D|-0-------0-------0-------0-------2-------2-------2-------2------|
A|-2-------2-------2-------0-------0-------0-------0-------0------|
E|-3-------3-------3-------2--------------------------------------|
  (G)                     (?)     (A)


               And I will try to fix you

E|-X-------X-------X-------X-------X-------X-------X--------------|
B|-0-------0-------0-------X-------2-------3-------2--------------|
G|-0-------0-------0-------2-------2-------2-------2--------------|
D|-0-------0-------0-------0-------2-------2-------2--------------|
A|-2-------2-------2-------0-------0-------0-------0--------------|
E|-3-------3-------3-------2--------------------------------------|
  (G)                     (?)     (A)     (A#)    (A)




  Bridge x4... (Bridge index finger 2nd fret. Use Pinky for the 5th)

E|-X-X-X-X-0-0-0-0-2-2-2-2-5-5-5-5-X-X-X-X-0-0-0-0-2-2-2-2-5-5-5-5|
B|-3-3-3-3-3-3-3-3-3-3-3-3-3-3-3-3-3-3-3-3-3-3-3-3-3-3-3-3-3-3-3-3|
G|-2-2-2-2-2-2-2-2-2-2-2-2-2-2-2-2-2-2-2-2-2-2-2-2-2-2-2-2-2-2-2-2|
D|-0-0-0-0-0-0-0-0-0-0-0-0-0-0-0-0-0-0-0-0-0-0-0-0-0-0-0-0-0-0-0-0|
A|-0-0-0-0-0-0-0-0-0-0-0-0-0-0-0-0-0-0-0-0-0-0-0-0-0-0-0-0-0-0-0-0|
E|----------------------------------------------------------------|




 (The following can now be played freestyle, 4-5 strums per chord)


                   Tears stream down on your face

E|-2-------2-------2-------2-------3-------3-------3-------3------|
B|-3-------3-------3-------3-------0-------0-------0-------0------|
G|-2-------2-------2-------2-------0-------0-------0-------0------|
D|-0-------0-------0-------0-------0-------0-------0-------0------|
A|-0-------0-------0-------0--------------------------------------|
E|----------------------------------------------------------------|
  (D)                             (G)


           When you lose something you cannot replace

E|-2-------2-------2-------2--------------------------------------|
B|-3-------3-------3-------3-------2-------2-------2-------2------|
G|-2-------2-------2-------2-------2-------2-------2-------2------|
D|-0-------0-------0-------0-------2-------2-------2-------2------|
A|-0-------0-------0-------0-------0-------0-------0-------0------|
E|----------------------------------------------------------------|
  (D)                             (A)


                   Tears stream down on your face

E|-2-------2-------2-------2-------3-------3-------3/7-----7------|
B|-3-------3-------3-------3-------0-------0-------0-------0------|
G|-2-------2-------2-------2-------0-------0-------0-------0------|
D|-0-------0-------0-------0-------0-------0-------0-------0------|
A|-0-------0-------0-------0--------------------------------------|
E|----------------------------------------------------------------|
  (D)                             (G)


   And I...

E|-2-------2-------2-------2--------------------------------------|
B|-3-------3-------3-------3-------2-------2-------2-------2------|
G|-2-------2-------2-------2-------2-------2-------2-------2------|
D|-0-------0-------0-------0-------2-------2-------2-------2------|
A|-0-------0-------0-------0-------0-------0-------0-------0------|
E|----------------------------------------------------------------|
  (D)                             (A)


                   Tears stream down on your face

E|-2-------2-------2-------2-------3-------3-------3-------3------|
B|-3-------3-------3-------3-------0-------0-------0-------0------|
G|-2-------2-------2-------2-------0-------0-------0-------0------|
D|-0-------0-------0-------0-------0-------0-------0-------0------|
A|-0-------0-------0-------0--------------------------------------|
E|----------------------------------------------------------------|
  (D)                             (G)


           I promise you that I'll learn from my mistakes

E|-2-------2-------2-------2--------------------------------------|
B|-3-------3-------3-------3-------2-------2-------2-------2------|
G|-2-------2-------2-------2-------2-------2-------2-------2------|
D|-0-------0-------0-------0-------2-------2-------2-------2------|
A|-0-------0-------0-------0-------0-------0-------0-------0------|
E|----------------------------------------------------------------|
  (D)                             (A)


                   Tears stream down on your face

E|-2-------2-------2-------2-------3-------3-------3/7-----7------|
B|-3-------3-------3-------3-------0-------0-------0-------0------|
G|-2-------2-------2-------2-------0-------0-------0-------0------|
D|-0-------0-------0-------0-------0-------0-------0-------0------|
A|-0-------0-------0-------0--------------------------------------|
E|----------------------------------------------------------------|
  (D)                             (G)


   And I...

E|-2-------2-------2-------2--------------------------------------|
B|-3-------3-------3-------3-------2-------2-------2-------2------|
G|-2-------2-------2-------2-------2-------2-------2-------2------|
D|-0-------0-------0-------0-------2-------2-------2-------2------|
A|-0-------0-------0-------0-------0-------0-------0-------0------|
E|----------------------------------------------------------------|
  (D)                             (A)


                  Lights will guide you home

E|-------------------------X-------X---------------X--------------|
B|-------------------------X-------2---------------2--------------|
G|-------------------------2-------2---------------2--------------|
D|-------------------------0-------2---------------2--------------|
A|-------------------------0-------0---------------0--------------|
E|-------------------------2--------------------------------------|
                          (?)     (A)             (A)


                  And ignite your bones

E|----------------------------------------------------------------|
B|----------------------------------------------------------------|
G|----------------------------------------------------------------|
D|----------------------------------------------------------------|
A|----------------------------------------------------------------|
E|----------------------------------------------------------------|


                  And I will try to fix you

E|----------------------------------------------------------------|
B|----------------------------------------------------------------|
G|----------------------------------------------------------------|
D|----------------------------------------------------------------|
A|----------------------------------------------------------------|
E|----------------------------------------------------------------|

Suggest correction
What's this?
You can suggest a correction to this tab. Community and Mods will review your correction and vote to approve or reject it.
comments
We did not receive enough feedback on this tab! Please rate:
print report bad tab
1 2 3 4 5
guest
You may want to rate the tab now too:
select rating
Please do not post tabs as comments. Select "correction" instead!