Oops, an error
Loading. Please wait.

I Feel Pretty Unpretty Tab

version 1
version 1

Whole song

12,478 views 27 this week
no commentswrite comment
1 2 3 4 5
excellent!
x 5
add to favorites
launch autoscroll
font size
0
reset
how to read this tab
guitar tuner
Autoscroll
slow
fast
+/-
esc
set tempo
stop
Help us to improve Ultimate-Guitar.com Take our survey!
×
Contributor
Capo
sarahl 40
3rd fret
-----------------------------------------------------------------------------
                             I Feel Pretty Unpretty - Glee Cast
-----------------------------------------------------------------------------
Tabbed by: Sarah L.



Tuning: Capo 3


Intro:

e|-------------0----------------0--------------------------------------------|
B|------------------------3------------------------1------------------0------|
G|------0-----------0------------------------------0--------0---------0------|
D|-------------------------------------------3----------3-------3---------0--|
A|---3---------3----------2------3-------------------------------------------|
E|------------------------3-------------1------------------------------------|


e|-------------0----------------0--------------------------------------------|
B|---------1---------------3------------------------1----------------0-------|
G|------0-----------0------------------------------------------------0-------|
D|----------------------------------------3---------3----2-----3---2-------0-|
A|---3---------3----------2------3-----0------------0------------------------|
E|------------------------3--------------------------------------------------|

X 2 for verses


pluck all notes equal length except when marked with an *
*=notes held 2x longer than rest

My outsides are cool, my insides are blue...

e|-------------3*-----------3-------------3*---------3-----------------3*----|
B|---------1--------1------------------1------1-------------------1----------|
G|------0----------------0---------0--------------0------------0-------------|
D|---------------------------------------------------------------------------|
A|---3-------------------------2---------------------------------------------|
E|---------------------------------------------------------1-----------------|

                                         Every time I think...
e|--------------3---------3----------3----------------3*--------3------------|
B|--------1--------------1----------0---------------1-----1------------------|
G|-----------0--------0----------0--------------0------------0---------------|
D|---------------------------------------------------------------------------|
A|------------------------------------------3--------------------------------|
E|------------------1---------3----------------------------------------------|

e|-----------------3*-----------3-------------------3*------------3--------3-|
B|-------------1-------1-----------------------1---------1----------------1--|
G|---------0---------------0---------------0------------------0---------0----|
D|---------------------------------------------------------------------------|
A|----2----------------------------------------------------------------------|
E|-------------------------------------1------------------------------1------|


                     I've tried different ways...
e|-----------3--------------------3*----------3----------3*-----3------------|
B|---------0------------------1-------1---------------1-----1----------------|
G|-------0-----------------0---------------0---------0--------0--------------|
D|---------------------------------------------------------------------------|
A|---------------------3-------------------------2---------------------------|
E|--3------------------------------------------------------------------------|
                                                          At the end...
e|-----------------3*-------3--------------3----------3------------------3*--|
B|-------------1------1----------------1------------0----------------1-------|
G|----------0-----------0-----------0-------------0---------------0----------|
D|---------------------------------------------------------------------------|
A|-----------------------------------------------------------3---------------|
E|---1-------------------------1--------------3------------------------------|


e|-----------3---------------3*-----------3---------------3*--------3---------|
B|----1-------------------1-------1-------------------1-----1-----------------|
G|--------0-------------0-------------0------------0-----------0--------------|
D|----------------------------------------------------------------------------|
A|----------------2-----------------------------------------------------------|
E|--------------------------------------------1-------------------------------|



e|------------3--------------|
B|---------1------3*---------|
G|------0--------------0*----|
D|---------------------------|
A|---------------------------|
E|---1------------3*---------|

Chorus: Intro X2

I feel pretty...                      oh so pretty...

e|----------3*-------3----------3*---------3----------3*-----3--------3-----3-|
B|-------1-----1-------------1-------1--------------1---1-----------1---1-----|
G|----0-----------0-------0-------------0---------0-------0-------0-------0---|
D|----------------------------------------------------------------------------|
A|-3--------------------3-----------------------------------------------------|
E|--------------------------------------------1-----------------1-------------|

I feel pretty      and witty          and bright
e|----------3*------3--------3*-------3---------3------3-------3*-------3----|
B|-------1-----1-----------1----1-------------1----1---------1---1-----------|
G|----0----------0-------0---------0--------0--------0-----0-------0---------|
D|---------------------------------------------------------------------------|
A|-3-------------------2-----------------------------------------------------|
E|----------------------------------------1--------------1-------------------|
And I pity                             any girl      who isn't  me
e|----------3*-------3--------3*-----------3--------3*------3----------3------|
B|-------1-----1------------1------1--------------1---1-------------1---------|
G|----0-----------0-------0------------0---------0-------0---------0----------|
D|----------------------------------------------------------------------------|
A|-0--------------------0-----------------------------------------------------|
E|--------------------------------------------1------------------1------------|

               tonight    ahh..              (X4)

e|----------3----|------------3*-----------3--------3*------3----------3*---3-|
B|-------1-------|---------1------1---------------1---1-------------1----1----|
G|----0----------|-------0------------0----------0-------0---------0------0---|
D|---------------|------------------------------------------------------------|
A|---------------|-----0----------------------0-------------------------------|
E|-3-------------|----------------------------------------------1-------------|


e|---------3*---------3-|
B|-----1------1---------|
G|---0------------0-----|
D|----------------------|
A|----------------------|
E|-1--------------------|
Suggest correction new What's this?
You can suggest a correction to this tab. Community and Mods will review your correction and vote to approve or reject it.
comments
print report bad tab
guest
You may want to rate the tab now too:
select rating
Please do not post tabs as comments. Select "correction" instead!