Oops, an error
Loading. Please wait.

Isnt She Lovely Chords

version 1
version 1

Whole song

90,874 views 120 this week
no commentswrite comment
1 2 3 4 5
accurate
x 11
add to favorites
launch autoscroll
font size
0
reset
transpose
0
reset
simplify chords
display chords
guitar tuner
Autoscroll
slow
fast
+/-
esc
set tempo
stop
Help us to improve Ultimate-Guitar.com Take our survey!
×
Author
hi this is my first tab so i hope you enjoy it

ISN'T SHE LOVELY-glee vesion by Stevie Wonder

Verse 1:(music off)

Isn't she lovely?
Isn't she wonder-ful?
Isn't she precious?
Less than one minute old.

Chorus 1:(music off)

I never thought through love we'd be,
Making one as lovely as she.
But isn't she lovely; made from love?

Verse 2:

           C Am7  D
 Isn't she pretty?
          F       C
Truly the angel's best.
            C Am7  D
 Boy, I'm so happy,
             F      C
We have been Heaven blessed.

Chorus 2:

           Fmaj7              Em
I can't be-lieve what God has done;
          E7         Am7       D
 Through us he's given life to one.
              F       G          C
But isn't she lovely; made from love?

e|---------------------------------------------------------------------------|
B|----------------------------------5----------------------------------------|
G|----------------------------5-----5----------------------------------------|
D|----------------------5-7---------5----------------------------------------|
A|-------------5-6-7---------------------------------------------------------|
E|---3/5--8------------------------------------------------------------------|


Verse 3:

           C Am7  D
 Isn't she lovely?
              F       C
Life and love are the same.
        C Am7 D
 Life is A-isha,
            F/G    C
The meaning of her name.

Chorus 3:

           Fmaj7               Em
Londie, it could have not been done,
       E7          Am7          D
 Without you who conceived the one,
               F       G         C
That's so very lovely; made from love.

e|---------------------------------------------------------------------------|
B|----------------------------------5----------------------------------------|
G|----------------------------5-----5----------------------------------------|
D|----------------------5-7---------5----------------------------------------|
A|-------------5-6-7---------------------------------------------------------|
E|---3/5--8------------------------------------------------------------------|
Suggest correction
comments
print report bad tab
guest
You may want to rate the tab now too:
select rating
Please do not post tabs as comments. Select "correction" instead!