Oops, an error
Loading. Please wait.

True Colors Tab

version 1
version 1

Whole song

13,049 views 18 this week
no commentswrite comment
1 2 3 4 5
accurate
x 4
add to favorites
launch autoscroll
font size
0
reset
how to read this tab
guitar tuner
Autoscroll
slow
fast
+/-
esc
set tempo
stop
Help us to improve Ultimate-Guitar.com Take our survey!
×
Author
Difficulty
novice
This my first tab. I had to tab the whole song for my church as I prefer to
play as close to the original as possible rather than play all chords ;).
Credit for the intro goes to bJoelFan13. Credit for the chords goes to
MLMixTape. Thanks to you two, you made my life easier :).

This is my take on the song. I'm pretty sure verse 1&2 is right though the
first chorus might not be totally correct as the backing vocals covered
much of it. It still sounds good though. I probably wont take the time to
correct, but feel free to leave what you think is correct or an alternate
way to play certain parts in the comments. Also feel free to use this tab
in whatever way you please, even as a basis for your own or more
complicated version if you wish. Listen to the song to get the timing right
though it’s pretty simple.


INTRO/INTERLUDES:

E|--5-----5-5-----5-5------------5-----5-5-----5-5-------|
B|-------------------------------------------------------|
G|----6-7-----6-7-----6-7-4--6-7---6-7-----6-7-----6-7-4-|
D|-------------------------------------------------------|
A|-------------------------------------------------------|
E|-------------------------------------------------------|

VERSES 1 & 2:

E|----------0-----0-2---0-2----0-2-5-----3-----2-------------------2-----2-0-|
B|--3---2-3---2-3-----3-----3--------3-5---2-3---3-3---0-2---0-2-3---2-3-----|
G|----2----------------------------------------------2-----2-----------------|
D|---------------------------------------------------------------------------|
A|---------------------------------------------------------------------------|
E|---------------------------------------------------------------------------|

|-----0-2-----5----5-------------------0-------------|
|-2-3-----2-3----3---3-3---0-2---0-2-3---0-2-3-0-2-3-|
|------------------------2-----2---------------------|
|----------------------------------------------------|
|----------------------------------------------------|
|----------------------------------------------------|

CHORUS 1:

E|--3---0-2---0-2-------------------3-----2-------------------------|
B|----3-----3-----3-3---0-2---0-2-3---2-3---0-2-3-2-3---0-2---0-2-3-|
G|--------------------2-----2-------------------------2-----2-------|
D|------------------------------------------------------------------|
A|------------------------------------------------------------------|
E|------------------------------------------------------------------|

|-3---------------3--------------------------------------------0----|
|---0-2-3---0-2-3---0-2-3---0-2-3-3-0-2-3-0-2-3--3-0-2-3-0-2-3-3----|
|---------2---------------2------------------------------------2----|
|--------------------------------------------------------------2----|
|--------------------------------------------------------------0----|
|--------------------------------------------------------------x----|


INTERLUDE


VERSE 2


CHORUS 2:

               G    D      Asus          A
And I see your true colors shining through
           G    D          G            Asus   A
I see your true colors and that's why I love you
   G         D        G        Bm
So don't be afraid to let them show
     G/D  D       G/D  G           Asus
Your true colors, true colors, are beautiful like a rainbow


INTERLUDE


VERSE 3:

Bm   A   D   D/F#   G                             Bm             A
  Ah  ah  ah     Ahh  [spoken]Can't remember when I last saw you laughing

   D                    Em               F#m           G
If this world makes you crazy and you've taken all you can bear
    Bm      A               G            D
You call me up, because you know I'll be there


CHORUS 3:

                  G    D      Asus          A
And I'll see your true colors shining through (I see them shining through)
           G    D          G            Asus   A
I see your true colors and that's why I love you (that's why I love you)
   G         D                 G        Bm
So don't be afraid (afraid) to let them show
     G/D  D       G/D  D
Your true colors, true colors
           G    D      Asus    A
I see your true colors shining through (yeah)
           G    D          G            Asus   A
I see your true colors and that's why I love you
   G        D                  G        Bm
So don't be afraid (afraid) to let them show
     G/D  D       G/D  D
Your true colors, true colors,
G/D  D          Asus
True colors are beautiful like a rainbow

OUTRO:

|--5-----5-5-----5-5-----5---|
|--------------------------0-|
|----6-7-----6-7-----6-7---4-|
|----------------------------|
|----------------------------|
|----------------------------|


Song Order:

Intro
Verse 1
Chorus 1
Interlude
Verse 2
Chorus 2
Interlude
Verse 3
Chorus 3
Outro


And that's the song! Hope this tab helps!
Suggest correction
comments
print report bad tab
guest
You may want to rate the tab now too:
select rating
Wanna post a correction for this tab? Suggest correction