Oops, an error
Loading. Please wait.

By The Time I Get To Phoenix Bass Tab

version 2
version 2

Whole song

  • "By the Time I Get to Phoenix" was named the third... Show more
34 views 6 this week
no commentswrite comment
1 2 3 4 5
3 more votes to show rating
add to favorites
launch autoscroll
font size
0
reset
guitar tuner
Autoscroll
slow
fast
+/-
esc
set tempo
stop
Help us to improve Ultimate-Guitar.com Take our survey!
×
Author
Difficulty
novice
About this tab version
"By the Time I Get to Phoenix" was named the third most performed song from the period between 1940 and 1990 according to BMI. Was this info helpful? Yes No
  Intro
G|----3-----------|----3-----------|----3-----------|----3-----------|
D|1---------------|1---------------|1---------------|1---------------|
A|------------1---|------------1---|------------1---|--------1-------|
E|----------------|----------------|----------------|----------------|
                                                                 By   
  Verse
G|----------------|----------------|----------------|----------------|
D|----------------|----------------|3---------------|3-------3-------|
A|1-------1-------|1-------1-------|--------1-------|----------------|
E|----------------|----------------|----------------|----------------|
  time      I      Phoenix     she  risen                        she 

G|----------------|----------------|----------------|----------------|
D|----------------|----------------|3---------------|3---------------|
A|1-------1-------|1-------1-------|--------1-------|----------------|
E|----------------|----------------|----------------|--------1-------|

G|----------------|----------------|----------------|----------------|
D|----------------|----------------|----------------|----------------|
A|----------------|1-------1-------|----------------|3-------3-------|
E|4-------4-------|----------------|3-------3-------|----------------|

G|----------------|----------------|----------------|----------------|
D|----------------|----------------|----------------|----------------|
A|--------3-------|----------------|4-------4-------|1---------------|
E|1---------------|1-------1-------|----------------|--------1-------|

  Verse
G|----------------|----------------|----------------|----------------|
D|----------------|----------------|3---------------|3-------3-------|
A|1-------1-------|1-------1-------|--------1-------|----------------|
E|----------------|----------------|----------------|----------------|

G|----------------|----------------|----------------|----------------|
D|----------------|----------------|3---------------|3---------------|
A|1-------1-------|1-------1-------|--------1-------|----------------|
E|----------------|----------------|----------------|--------1-------|

G|----------------|----------------|----------------|----------------|
D|----------------|----------------|----------------|----------------|
A|----------------|1-------1-------|----------------|3-------3-------|
E|4-------4-------|----------------|3-------3-------|----------------|

G|----------------|----------------|----------------|----------------|
D|----------------|----------------|----------------|----------------|
A|--------3-------|----------------|4-------4-------|1---------------|
E|1---------------|1-------1-------|----------------|--------1-------|

  Verse
G|----------------|----------------|----------------|----------------|
D|----------------|----------------|3---------------|3-------3-------|
A|1-------1-------|1-------1-------|--------1-------|----------------|
E|----------------|----------------|----------------|----------------|

G|----------------|----------------|----------------|----------------|
D|----------------|----------------|3---------------|3---------------|
A|1-------1-------|1-------1-------|--------1-------|----------------|
E|----------------|----------------|----------------|--------1-------|

G|----------------|----------------|----------------|----------------|
D|----------------|----------------|----------------|----------------|
A|----------------|1-------1-------|----------------|3-------3-------|
E|4-------4-------|----------------|3-------3-------|----------------|

G|----------------|----------------|----------------|----------------|
D|----------------|----------------|----------------|----------------|
A|----------------|1-------1-------|----------------|----------------|
E|1-------1-------|----------------|1-------1-------|4-------4-------|

G|----------------|----------------|----------------|----------------|
D|----------------|----------------|----------------|----------------|
A|----------------|----------------|3-------3-------|1-------1-------|
E|1-------1-------|3-------3-------|----------------|----------------|

G|----------------|----------------|----------------|----------------|
D|----------------|----------------|----------------|----------------|
A|3-------3-------|1-------1-------|3---------------|----------------|
E|----------------|----------------|----------------|----------------|
Suggest correction
Give kudos to tab author, rate the tab!
1 2 3 4 5
comments
print report bad tab
guest
You may want to rate the tab now too:
select rating
Wanna post a correction for this tab? Suggest correction