Oops, an error
Loading. Please wait.

Christmas Day bass

25 views 1 this week
no commentswrite comment
1 2 3 4 5
3 more votes to show rating
add to favorites
×
Save as Personal and add changes to this tab that will be seen only by you. Learn more ›
×
You can save this tab as Personal to edit and correct it or add notes. All changes will be seen only by you. Learn more »
launch autoscroll
font size
0
reset
guitar tuner
edit
Autoscroll
slow
fast
+/-
esc
set tempo
stop
Author
Difficulty
Tabbed by: 6METAL6BASSIST6
E-mail: petergriffinav@gmail.com

Tuning: EADG

0:11

G|------------------------------------------------------------------------------------------------|
D|3-------------------3---5-------------------5---3-------------------3---2-----------------------|
A|----------------------------------------------------------------------------------------2-------|
E|--------------------------------------------------------------------------------------------3---|

G|------------------------------------------------------------------------------------------------|
D|------------------------------------------------5-------------------5---------------5-------5---|
A|5-----------------------5-------------------5---------------------------------------------------|
E|--------------------5---------------------------------------------------3-------3-------3-------|

0:26

G|------------------------------------------------------------------------------------------------|
D|3-------------------3---5-------------------5---3-------------------3---2-----------------------|
A|----------------------------------------------------------------------------------------2-------|
E|--------------------------------------------------------------------------------------------3---|

G|------------------------------------------------------------------------------------------------|
D|------------------------------------------------------------------------------------------------|
A|--------------------------------------------------------------------------------------------2---|
E|1-------------------1---3-------------------3---1-------------------1---0---------------3-------|

G|------------------------------------------------------------------------------------------------|
D|3-------------------3---5-------5---------------------------------------------------------------|
A|------------------------------------------------3-------------------3---------------3-------4---|
E|------------------------------------3-----------------------------------3-----------------------|

0:48

G|------------------------------------------------------------------------------------------------|
D|------------------------5-----------------------------------------------2-----------1-----------|
A|5-------------------5---------------------------3-------------------3---------------------------|
E|------------------------------------3-----------------------------------------------------------|

G|------------------------------------------------------------------------------------------------|
D|----------------3---4---5-----------------------------------------------------------------------|
A|5-----------------------------------------------3-------------------3---------------3-----------|
E|------------------------------------3-----------------------------------3-----------------------|

1:03

G|------------------------------------------------------------------------------------------------|
D|------------------------------------1-----------2-----------------------2-------------------2---|
A|--------------------3---2-------------------------------------------2---------------2-----------|
E|5-----------------------------------------------------------------------------------------------|

G|------------------------------------------------------------------------------------------------|
D|------------------------------------------------5-------------------5-------------------5-------|
A|5-------------------5---5-------------------5---------------------------------------------------|
E|------------------------------------------------------------------------3-------3-----------3---|

1:18

G|------------------------------------------------------------------------------------------------|
D|3-------------------3---5-------------------5---3-------------------3---2-----------------------|
A|----------------------------------------------------------------------------------------2-------|
E|--------------------------------------------------------------------------------------------3---|

G|------------------------------------------------------------------------------------------------|
D|--------------------------------------------------------------------------------------------2---|
A|----------------------------------------------------------------------------------------2-------|
E|1-------------------1---3-------------------3---1-------------------1---0-----------3-----------|

G|------------------------------------------------------------------------------------------------|
D|3-------------------3---5-------5---------------------------------------------------------------|
A|------------------------------------------------3-------------------3---3-------------------3---|
E|------------------------------------3-----------------------------------------------3-----------|

1:41

G|------------------------------------------------------------------------------------------------|
D|------------------------5-------5---------------------------------------2-----------1-----------|
A|5-------------------5---------------------------3-------------------3---------------------------|
E|------------------------------------3-----------------------------------------------------------|

G|------------------------------------------------------------------------------------------------|
D|----------------3---4---5-----------------------------------------------------------------------|
A|5-----------------------------------------------3-------------------3---------------3-------2---|
E|------------------------------------3-----------------------------------3---------------3-------|

1:56

G|------------------------------------------------------------------------------------------------|
D|------------------------------------------------2-------------------2---------------2-----------|
A|--------------------3---2-----------------------------------------------2-----------------------|
E|5-----------------------------------------------------------------------------------------------|

G|------------------------------------------------------------------------------------------------|
D|------------------------------------------------5-----------------------6-------------------6---|
A|5-------------------5---5-------------------5-------------------------------------------6-------|
E|------------------------------------------------------------3-----------------------4-----------|

2:11

G|------------------------------------------------------------------------------------------------|
D|4-------------------4---3-------------------3---4-------------------4---3-----------------------|
A|----------------------------------------------------------------------------------------3-------|
E|--------------------------------------------------------------------------------------------4---|

G|------------------------------------------------------------------------------------------------|
D|--------------------------------------------------------------------------------------------3---|
A|----------------------------------------------------------------------------------------3-------|
E|2-------------------2---4-------------------4---2-------------------2---1-----------4-----------|

G|------------------------------------------------------------------------------------------------|
D|4-------------------4---6-----------------------------------------------6-----------------------|
A|------------------------------------------------4-------------------4---------------4-------5---|
E|------------------------------------4-----------------------------------------------------------|

2:35

G|------------------------------------------------------------------------------------------------|
D|------------------------------------------------------------------------------------6-----------|
A|6-------------------6---------------6-------------------------------6---------------------------|
E|------------------------6-----------------------4-----------------------4-----------------------|

G|------------------------------------------------------------------------------------------------|
D|------------------------------------------------------------------------------------------------|
A|4-------------------4-----4---------------------4-----4-----------------------------------------|
E|----------------------------------------------------------------------------------4-------------|

            
            
Suggest correction
Creating personal tab
Creating personal tab
You can edit any tab online and save it as your Personal.

You can edit, replace or remove any tab part or add personal notes – all changes will be seen only by you.

Personal tabs can be accessed anytime from any device, even offline.
Learn more »
Give kudos to tab author, rate the tab!
1 2 3 4 5
comments
print report bad tab
guest
You may want to rate the tab now too:
select rating
Wanna post a correction for this tab? Suggest correction