Oops, an error
Loading. Please wait.

Galveston chords

version 6
version 6

Whole song

  • I have included a 'missing' F#m in the first line ... Show more
  • This version is in C for singers with a lower octa... Show more
  • My version includes lead riff tabbs.
1,789 views 162 this week
no commentswrite comment
1 2 3 4 5
x 7
add to favorites
×
Save as Personal and add changes to this tab that will be seen only by you. Learn more ›
×
You can save this tab as Personal to edit and correct it or add notes. All changes will be seen only by you. Learn more »
launch autoscroll
font size
0
reset
transpose
0
reset
simplify chords
display chords
guitar tuner
edit
Autoscroll
slow
fast
+/-
esc
set tempo
stop
About this tab version
My version includes lead riff tabbs. Was this info helpful? Yes No
Strumming
There is no strumming pattern for this song yet. and get +5 IQ
Galveston 
Glen Campbell
written by Jimmy Webb



Intro C  F  C  F  Bb C 

  Riff to F chord played twice  then Bb C to F below
E--------------------1---|
B--------------------1---|
G---------------------2--|
D----------------------3-|
A--3--5--3-------------3-|
E-----------5--3--1--1---|

Verse 1


F              Bb C F           Fmaj7        F7      Bb    Am Gm7
Galveston, oh Galveston, I still hear your sea winds blowin'

From Bb above to Gm7   [Repeated in verses below]

E-1----------3----|
B---3--------3----|
G---3--------3----|
D---3--------3----|
A-1----1--0----5--|
E-1----------3----|



C       F        Am       Bb     Am Gm7 
I still see her dark eyes glowin'
        C      Dm       Bb              F Bb C F       
She was twenty-one when I left Galveston

Verse 2

F             Bb  C F           Fmaj7        F7      Bb      Am Gm7
Galveston, oh Galveston, I still hear your sea waves crashing
C       F                 Bb      Am Gm7        
While I watch the cannons flashing
  C        Dm       Bb                 F Bb C G#      
I clean my gun then dream of Galveston

Chorus 

                         Bb     G#    Bb 
I still see her standing by the water
Cm                     Bb     G#
Standing there lookin' out to sea
           Fm      Bb        D#            
And is she waiting there for me?
        Gm                    G#  Bb F
On the beach where we used to run

Verse 3

F              Bb C F      Fmaj7    F7     Bb   Am  Gm7
Galveston, oh Galveston, I am so afraid of dying
         F        Am         Bb    Am  Gm7
Before I dry the tears she's crying
C        Dm        F          Bb     Am     Gm7  
Before I watch your sea birds flying in the sun
         D    Bb         F    Bb  C  F
At Galveston,   at Galveston. 

E-------------------------|----------------------------|
B-------------------------|----------------------------|
G-------------------------|----------------------------|
D-------------------------|----------------------------|
A-------3--3--3--5--3--3--|-------3--3--3--0-----------|
E--4h5--------------------|--4h5--------------h1--0--1-|
                                                  *                         
------------------------|
------------------------|
------------------------|
------------------------|
------------------------|
--1--3--5--3--5--1--0--1|
                    *
------------------------------|
------------------------------|
------------------------------|  Bb  F  Bb C F    repeat
------------------------------|
------------------------------|
-1--1--3--5--0--5--5--3--1--1-|                                                
             *
flyinglibra51
God Bless Glen Travis Campbell
Suggest correction
Creating personal tab
Creating personal tab
You can edit any tab online and save it as your Personal.

You can edit, replace or remove any tab part or add personal notes – all changes will be seen only by you.

Personal tabs can be accessed anytime from any device, even offline.
Learn more »
comments
print report bad tab
guest
You may want to rate the tab now too:
select rating
Wanna post a correction for this tab? Suggest correction