Oops, an error
Loading. Please wait.

Less Of Me Let Me Be A Little Kinder Tab

3,178 views 15 this week
no commentswrite comment
1 2 3 4 5
please rate
add to favorites
launch autoscroll
font size
0
reset
how to read this tab
guitar tuner
Autoscroll
slow
fast
+/-
esc
set tempo
stop
Help us to improve Ultimate-Guitar.com Take our survey!
×
Author
"Less Of Me(Let Me Be A Little Kinder)"
Glen Campbell
Glen Campbell Goodtime Hour w/ Jackie DeShannon

Tabbed by Neil Crane. Listen to the song for the timing.

Intro:
 G       C     G
-3-3-3---------3-|
-0-0-0---------0-|
-0-0-0-----0-0-0-|
-0-0-0-----x-x-0-|
-2-----2h3-3-3-2-|
-3-------------3-|

 G               C         G         D           C           D           G         G
-----3-3-3-----------------3-3-3-----2-2-2-------------------2-2-2-------3---------3-|
-----0-0-0-------1-1-1-----0-0-0-----3-3-3-------1-1-1-------3-3-3-------0---------0-|
-----0-0-0-------0-0-0-----0-0-0-----2-2-2-------0-0-0-----0-2-2-2-------0---------0-|
-----0-0-0-----0-2-2-2-----0-0-0-----0-0-0-------2-2-2-0h2---0-0-0-------0-----0h2-0-|
---0-2-----0h2---3-3-3-3-0-2-----2-0-------0h2-0-3-3-3-------------0h1-0-2-0h2-----2-|
-3---3---------------------3---------------------------------------------3---------3-|

       G           C              G           D
Let me be a little kinder, let me be a little blinder,
       C                                                 D
To the faults of those around me, let me praise a little more.
       G            C             G               D
Let me be when I am weary, just a little bit more cheery,
        C                            D              G  C G
Think a little more of others, and a little less of me.

 G               C         G         D           C           D           G         G
-----3-3-3-----------------3-3-3-----2-2-2-------------------2-2-2-------3---------3-|
-----0-0-0-------1-1-1-----0-0-0-----3-3-3-------1-1-1-------3-3-3-------0---------0-|
-----0-0-0-------0-0-0-----0-0-0-----2-2-2-------0-0-0-----0-2-2-2-------0---------0-|
-----0-0-0-----0-2-2-2-----0-0-0-----0-0-0-------2-2-2-0h2---0-0-0-------0-----0h2-0-|
---0-2-----0h2---3-3-3-3-0-2-----2-0-------0h2-0-3-3-3-------------0h1-0-2-0h2-----2-|
-3---3---------------------3---------------------------------------------3---------3-|

       G           C                G              D
Let me be a little braver, when temptation bids me waver.
       C                                               D
Let me strive a little harder, to be all that I should be.
           G           C              G               D
And let me be a little meeker, with a brother that is weaker.
       C                                D              G  C G
Let me think more of my neighbor, and a little less of me.

 G               C         G         D           C           D           G         E
-----3-3-3-----------------3-3-3-----2-2-2-------------------2-2-2-------3-3-3-------0-0-0-|
-----0-0-0-------1-1-1-----0-0-0-----3-3-3-------1-1-1-------3-3-3-------0-0-0-------0-0-0-|
-----0-0-0-------0-0-0-----0-0-0-----2-2-2-------0-0-0-----0-2-2-2-------0-0-0-------1-1-1-|
-----0-0-0-----0-2-2-2-----0-0-0-----0-0-0-------2-2-2-0h2---0-0-0-------0-0-0-------2-2-2-|
---0-2-----0h2---3-3-3-3-0-2-----2-0-------0h2-0-3-3-3-------------0h1-0-2-----------2-2-2-|
-3---3---------------------3---------------------------------------------3-----3-2-0-0-0-0-|

       A            D             A               E
Let me be when I am weary, just a little bit more cheery,
       D                                               E
Let me serve a little better, those that I am striving for.
           A           D              A               E
And let me be a little meeker, with a brother that is weaker,
        D                            E              A
Think a little more of others, and a little less of me.

 A               D       A       E
-----0-0-0-------2-------0-------0-|
-----2-2-2-------3-------2-------0-|
-----2-2-2-------2-------2-------1-|
---0-2-2-2-----2-0-0-----2-------2-|
-4---0-0-0-4h5-------3-2-0-0-----2-|
-----------------------------3-2-0-|

        D                            E              A
Think a little more of others, and a little less of me.
Suggest correction
What's this?
You can suggest a correction to this tab. Community and Mods will review your correction and vote to approve or reject it.
comments
We did not receive enough feedback on this tab! Please rate:
print report bad tab
1 2 3 4 5
guest
You may want to rate the tab now too:
select rating
Please do not post tabs as comments. Select "correction" instead!