Oops, an error
Loading. Please wait.

Long Black Limousine bass

13 views 1 this week
no commentswrite comment
1 2 3 4 5
3 more votes to show rating
add to favorites
×
Save as Personal and add changes to this tab that will be seen only by you. Learn more ›
×
You can save this tab as Personal to edit and correct it or add notes. All changes will be seen only by you. Learn more »
launch autoscroll
font size
0
reset
guitar tuner
edit
Autoscroll
slow
fast
+/-
esc
set tempo
stop
Author
Difficulty
Tabbed by: 6METAL6BASSIST6
E-mail: petergriffinav@gmail.com

Tuning: EADG

0:33

G|------------------------------------------------------------------------------------------------|
D|5-----------------------------------------------5-----------------------------------4-----------|
A|------------------------5-----------------------------------------------5-----------------------|
E|------------------------------------------------------------------------------------------------|

G|------------------------------------------------------------------------------------------------|
D|5-----------------------------------------------5-----------------------------------5-----------|
A|------------------------5-----------------------------------------------5-----------------------|
E|------------------------------------------------------------------------------------------------|

G|------------------------------------------------------------------------------------------------|
D|------------------------5-----------------------5-----------------------------------------------|
A|3-----------------------------------3-----------------------------------5-----------------------|
E|------------------------------------------------------------------------------------------------|

0:48

G|------------------------------------------------------------------------------------------------|
D|5-----------------------------------------------5-----------------------------------5-----------|
A|------------------------5-----------------------------------------------5-----------------------|
E|------------------------------------------------------------------------------------------------|

G|------------------------------------------------------------------------------------------------|
D|------------------------7-----------------------------------------------2-----------4-----------|
A|5-----------------------------------------------5-----------------------------------------------|
E|------------------------------------------------------------------------------------------------|

0:58

G|------------------------------------------------------------------------------------------------|
D|5-----------------------------------------------5-----------------------------------5-----------|
A|------------------------5-----------------------------------------------5-----------------------|
E|------------------------------------------------------------------------------------------------|

G|------------------------------------------------------------------------------------------------|
D|------------------------2-----------4-----------5-----------------------------------------------|
A|3-----------------------------------------------------------------------5-----------------------|
E|------------------------------------------------------------------------------------------------|

1:08

G|------------------------------------------------------------------------------------------------|
D|5-----------------------------------5-----------------------------------2-----------4-----------|
A|------------------------5-----------------------5-----------------------------------------------|
E|------------------------------------------------------------------------------------------------|

G|------------------------------------------------------------------------------------------------|
D|5-----------------------------------------------5-----------------------------------5-----------|
A|------------------------5-----------------------------------------------5-----------------------|
E|------------------------------------------------------------------------------------------------|

1:18

G|------------------------------------------------------------------------------------------------|
D|------------------------5-----------------------------------------------2-----------4-----------|
A|3-----------------------------------------------3-----------------------------------------------|
E|------------------------------------------------------------------------------------------------|

G|------------------------------------------------------------------------------------------------|
D|5-----------------------------------------------5-----------------------------------5-----------|
A|------------------------5-----------------------------------------------5-----------------------|
E|------------------------------------------------------------------------------------------------|

1:27

G|------------------------------------------------------------------------------------------------|
D|5-----------------------------------------------5-----------------------------------5-----------|
A|------------------------5-----------------------------------------------5-----------------------|
E|------------------------------------------------------------------------------------------------|

G|------------------------------------------------------------------------------------------------|
D|------------------------7-----------------------------------------------2-----------4-----------|
A|5-----------------------------------------------5-----------------------------------------------|
E|------------------------------------------------------------------------------------------------|

1:38

G|------------------------------------------------------------------------------------------------|
D|5-----------------------------------------------5-----------------------------------5-----------|
A|------------------------5-----------------------------------------------5-----------------------|
E|------------------------------------------------------------------------------------------------|

G|------------------------------------------------------------------------------------------------|
D|------------------------2-----------4-----------5-----------------------------------------------|
A|3-----------------------------------------------------------------------5-----------------------|
E|------------------------------------------------------------------------------------------------|

1:49

G|------------------------------------------------------------------------------------------------|
D|5-----------------------------------5-----------------------------------2-----------4-----------|
A|------------------------5-----------------------5-----------------------------------------------|
E|------------------------------------------------------------------------------------------------|

G|------------------------------------------------------------------------------------------------|
D|5-----------------------------------------------5-----------------------2-----------4-----------|
A|------------------------5-----------------------------------5-----------------------------------|
E|------------------------------------------------------------------------------------------------|

1:59

G|------------------------------------------------------------------------------------------------|
D|5-----------------------------------------------5-----------------------------------5-----------|
A|------------------------5-----------------------------------------------5-----------------------|
E|------------------------------------------------------------------------------------------------|

G|------------------------------------------------------------------------------------------------|
D|------------------------2-----------4-----------5-----------------------------------------------|
A|3-----------------------------------------------------------------------5-----------------------|
E|------------------------------------------------------------------------------------------------|

2:09

G|------------------------------------------------------------------------------------------------|
D|5-----------------------------------5-----------------------------------2-----------4-----------|
A|------------------------5-----------------------5-----------------------------------------------|
E|------------------------------------------------------------------------------------------------|

G|------------------------------------------------------------------------------------------------|
D|5-----------------------------------------------5-----------------------------------5-----------|
A|------------------------5-----------------------------------------------5-----------------------|
E|------------------------------------------------------------------------------------------------|

2:19

G|------------------------------------------------------------------------------------------------|
D|------------------------5-----------------------------------------------2-----------4-----------|
A|3-----------------------------------------------3-----------------------------------------------|
E|------------------------------------------------------------------------------------------------|

G|------------------------------------------------------------------------------------------------|
D|5-----------------------------------------------5-----------------------------------------------|
A|------------------------5-----------------------------------------------5-----------------------|
E|------------------------------------------------------------------------------------------------|

2:29

G|------------------------------------------------------------------------------------------------|
D|5-----------------------------------------------5-----------------------------------5-----------|
A|------------------------5-----------------------------------------------5-----------------------|
E|------------------------------------------------------------------------------------------------|

G|------------------------------------------------------------------------------------------------|
D|------------------------7-----------------------------------------------2-----------4-----------|
A|5-----------------------------------------------5-----------------------------------------------|
E|------------------------------------------------------------------------------------------------|

2:39

G|------------------------------------------------------------------------------------------------|
D|5-----------------------------------------------5-----------------------------------5-----------|
A|------------------------5-----------------------------------------------5-----------------------|
E|------------------------------------------------------------------------------------------------|

G|------------------------------------------------------------------------------------------------|
D|------------------------2-----------4-----------5-----------------------------------------------|
A|3-----------------------------------------------------------------------5-----------------------|
E|------------------------------------------------------------------------------------------------|

2:49

G|------------------------------------------------------------------------------------------------|
D|5-----------------------------------5-----------------------------------2-----------4-----------|
A|------------------------5-----------------------5-----------------------------------------------|
E|------------------------------------------------------------------------------------------------|

G|------------------------------------------------------------------------------------------------|
D|5-----------------------------------------------5-----------------------------------------------|
A|------------------------5-----------3-----------------------------------------------------------|
E|------------------------------------------------------------------------------------------------|

            
            
Suggest correction
Creating personal tab
Creating personal tab
You can edit any tab online and save it as your Personal.

You can edit, replace or remove any tab part or add personal notes – all changes will be seen only by you.

Personal tabs can be accessed anytime from any device, even offline.
Learn more »
Give kudos to tab author, rate the tab!
1 2 3 4 5
comments
print report bad tab
guest
You may want to rate the tab now too:
select rating
Wanna post a correction for this tab? Suggest correction