Oops, an error
Loading. Please wait.

My Girl Bass Tab

10 views 1 this week
no commentswrite comment
1 2 3 4 5
3 more votes to show rating
add to favorites
launch autoscroll
font size
0
reset
guitar tuner
Autoscroll
slow
fast
+/-
esc
set tempo
stop
Help us to improve Ultimate-Guitar.com Take our survey!
×
Author
Difficulty
novice
Tabbed by: 6METAL6BASSIST6
E-mail: petergriffinav@gmail.com

Tuning: EADG

G|----|
D|----|
A|7---|
E|----|

G|----------------------------------------------------------------|
D|----------------------------------------------------------------| x3
A|------------7---------------7---------------7---------------7---|
E|5---5-----------5---5-----------5---5-----------5---5-----------|

0:15

G|----------------------------------------------------------------|
D|----------------------------------------------------------------| x4
A|--------------------------------5---5-----------5---5-------7---|
E|5---5-------0---5---5-------5---------------5-------------------|

0:35

G|----------------------------------------------------------------|
D|----------------------------------------------------------------|
A|--------------------------------5-----------5---7---------------|
E|5-----------5---7-----------7---------------------------0---2---|

G|----------------------------------------------------------------|
D|----------------------------------------------------------------|
A|------------------------4-------5-----------5---7---------------|
E|5-----------5---7---------------------------------------0-------|

G|----------------------------------------------------------------|
D|----------------------------------------------------------------|
A|----------------------------------------------------------------|
E|5-----------5---0---------------5-----------5---0---2---5---2---|

G|----------------------------------------------------------------|
D|----------------------------------------------------------------|
A|2-----------2-----------2-------7---------------7---7-----------|
E|----------------2---------------------------------------0---0---|

0:55

G|----------------------------------------------------------------|
D|----------------------------------------------------------------| x3
A|--------------------------------5---5-----------5---5-------7---|
E|5---5-------0---5---5-------5---------------5-------------------|

G|----------------------------------------------------------------|
D|----------------------------------------------------------------|
A|--------------------------------5---5-----------5-------5---7---|
E|5---5-------0---5---5-------5---------------5-------------------|

1:14

G|----------------------------------------------------------------|
D|----------------------------------------------------------------|
A|--------------------------------5-----------5---7---------------|
E|5-----------5---7-----------7---------------------------0---2-/-|

G|----------------------------------------------------------------|
D|----------------------------------------------------------------|
A|------------------------4-------5-----------5---7---------------|
E|5-----------5---7---------------------------------------0-------|

G|----------------------------------------------------------------|
D|----------------------------------------------------------------|
A|----------------------------------------------------------------|
E|5-----------5---0---------------5-----------5---0---2---5---2---|

G|----------------------------------------------------------------|
D|----------------------------------------------------------------|
A|2-----------2-----------2-------7---------------7---7-----------|
E|----------------2---------------------------------------0---0---|

1:34

G|----------------------------------------------------------------|
D|----------------------------------------------------------------| x2
A|------------7---------------7---------------7---------------7---|
E|5---5-----------5---5-----------5---5-----------5---5-----------|

1:44

G|----------------------------------------------------------------|
D|--------------------------------------------7-------------------|
A|------------7---------------7---5---5-----------5---5-------7---|
E|5---5-----------5---5-------------------------------------------|

G|----------------------------------------------------------------|
D|--------------------------------------------7-------------------|
A|------------7---------------7---5---5-----------5---5-------4---|
E|5---5-----------5---5-------------------------------------------|

G|--------------------------------------------4-------------------|
D|------------4---------------4---2---2-----------2---2-----------|
A|2---------------2---2-----------------------------------5---5---|
E|----------------------------------------------------------------|

G|----------------------------------------------------------------|
D|------------6---------------6---4---4---4-----------------------|
A|4---4-----------4---4-------------------------------------------|
E|------------------------------------------------2---2---2---2---|

2:04

G|------------------------------------4---------------------------|.
D|--------------------4-------6-----------2-----------------------|.
A|2---2-------4---6-----------------------------------4---2-------|.
E|------------------------------------------------------------4---|.
                                                                   . x2
G|------------------------------------4---------------------------|.
D|--------------------4-------6---------------2-------------------|.
A|2---2-------4---6-----------------------------------4---2-------|.
E|------------------------------------------------------------4---|.

2:24

G|----------------------------------------------------------------|
D|------------------------6-------2-------------------------------|
A|2-----------2---4-----------------------------------------------|
E|--------------------------------------------2---2-----------2-4-|

G|----------------------------------------------------------------|
D|------------------------6-------2-----------2---4---------------|
A|2-----------2-3-4-----------------------------------------------|
E|--------------------------------------------------------2---2---|

G|----------------------------------------------------------------|
D|----------------------------------------------------------------|
A|2-----------2-------------------2-----------2-------------------|
E|----------------2-------------------------------2-------4-------|

G|----------------------------------------------------------------|
D|--------------------------------4---4---2---2---1---1-----------|
A|4-----------4-----------4-------------------------------4---4---|
E|----------------4-----------------------------------------------|

2:43

G|----------------------------------------------------------------|
D|----------------------------------------------------------------|
A|2-----------2-------------------2-----------2-----------2---3---|
E|----------------2-----------2-------------------2---4-----------|

G|----------------------------------------------------------------|
D|--------------------------------4---4---2---2---1---1-----------|
A|4-----------4-----------4-------------------------------4---4---|
E|----------------4-----------------------------------------------|

G|----------------------------------------------------------------|
D|----------------------------------------------------------------|
A|2-----------2-------------------2-------------2---------2---3---|
E|----------------2-------------2-----------------2---4-----------|

G|----------------------------------------------------------------|
D|--------------------------------4---4---2---2---1---1-----------|
A|4-----------4-----------4-------------------------------4---4---|
E|----------------4-----------------------------------------------|

3:02

G|----------------------------------------------------------------|
D|----------------------------------------------------------------|
A|2-----------2-------------------2-----------2-------------------|
E|----------------2-------------------------------2-------4-------|

G|----------------------------------------------------------------|
D|--------------------------------4---4---2---2---1---1-----------| fades out here.
A|4-----------4-----------4-------------------------------4---4---|
E|----------------4-----------------------------------------------|
Suggest correction
Give kudos to tab author, rate the tab!
1 2 3 4 5
comments
print report bad tab
guest
You may want to rate the tab now too:
select rating
Wanna post a correction for this tab? Suggest correction