Oops, an error
Loading. Please wait.

Rhinestone Cowboy bass

version 1
version 1

Whole song

  • Campbell's version reached number 1 on the Billboard Hot 100.

Interactive

565 views 18 this week
no commentswrite comment
1 2 3 4 5
3 more votes to show rating
add to favorites
×
Save as Personal and add changes to this tab that will be seen only by you. Learn more ›
×
You can save this tab as Personal to edit and correct it or add notes. All changes will be seen only by you. Learn more »
launch autoscroll
font size
0
reset
guitar tuner
edit
Autoscroll
slow
fast
+/-
esc
set tempo
stop
Author
Difficulty
Tabbed by: 6METAL6BASSIST6
E-mail: petergriffinav@gmail.com

Tuning: EADG

G|----------------------------------------------------------------|
D|----------------------------------------------------------------|
A|----------------------------------------------------------------|
E|------------------------------------------------------------3---|

G|----------------------------------------------------------------|
D|----------------------------------------------------------------|
A|3---------------------------------------------------------------|
E|------------------------------------------------------------3---|

0:09

G|----------------------------------------------------------------|
D|----------------------------------------------------------------| x2
A|3-----------3---3---------------3-----------3---3---------------|
E|----------------------------------------------------------------|

G|----------------------------------------------------------------|
D|----------------------------------------------------------------|
A|3-----------3---3-----------0---3-----------3---3---------------|
E|------------------------3---------------------------0---1-------|

G|----------------------------------------------------------------|
D|------------------------5---------------------------------------|
A|--------------------------------------------------------5-------|
E|3-----------3---3---------------3-----------3---3-----------3---|

0:25

G|----------------------------------------------------------------|
D|----------------------------------------------------------------|
A|------------------------3-------------------------------3-------|
E|1-----------1---1---------------1-----------1---1---------------|

G|----------------------------------------------------------------|
D|3-----------3-------------------3-----------3-------2---0-------|
A|------------------------3---------------------------------------|
E|--------------------1-------------------------------------------|

G|----------------------------------------------------------------|
D|----------------------------------------------------------------|
A|3-----------3---3---------------3-----------3---3-------2---0---|
E|----------------------------------------------------------------|

G|----------------------------------------------------------------|
D|----------------------------------------------------------------|
A|----------------------------------------------------------------|
E|3-----------3---3---------------3-----------3---3---------------|

G|----------------------------------------------------------------|
D|----------------------------------------------------------------|
A|--------------------------------3-----------3---3---------------|
E|1-----------1---1-------------------------------------------0---|

0:46

G|----------------------------------------------------------------|
D|----------------------------------------------------------------|
A|----------------------------------------------------------------|
E|1-----------1---1---------------2-----------2---2---------------|

G|----------------------------------------------------------------|
D|----------------------------------------------------------------|
A|----------------------------------------------------------------|
E|3-----------3---3-------3-------3---------------1-------3-------|

0:55

G|----------------------------------------------------------------|
D|----------------------------------------------------------------|
A|3-----------3---3---------------3-----------3---3-----------0---|
E|------------------------1-------------------------------3-------|

G|----------------------------------------------------------------|
D|----------------------------------------------------------------|
A|3-----------3---3-----------0---3-----------3---3-------2---0---|
E|------------------------3---------------------------------------|

G|----------------------------------------------------------------|
D|------------------------5---------------------------------------|
A|----------------------------5-----------------------------------|
E|3-----------3---3---------------3-----------3---1-------3-------|

1:07

G|----------------------------------------------------------------|
D|----------------------------------------------------------------|
A|3-----------3---3---------------3-----------3---3-----------0---|
E|------------------------1-------------------------------3-------|

G|----------------------------------------------------------------|
D|----------------------------------------------------------------|
A|3-----------3---3-----------0---3-----------3---3-------2---0---|
E|------------------------3---------------------------------------|

G|--------------------------------------------------------7-------|
D|--------------------------------5-----------5---5---------------|
A|------------------------5---------------------------------------|
E|3-----------3---3-----------3-----------------------------------|

G|10----------9-----------7-----------5-----------4-------2-------|
D|----------------------------------------------------------------|
A|----------------------------------------------------------------|
E|----------------------------------------------------------------|

G|----------------------------------------------------------------|
D|5-----------3-----------2-----------0---------------------------|
A|----------------------------------------------------------------|
E|------------------------------------------------1-------3-------|

1:29

G|----------------------------------------------------------------|
D|----------------------------------------------------------------| x2
A|3-----------3---3---------------3-----------3---3---------------|
E|----------------------------------------------------------------|

G|----------------------------------------------------------------|
D|----------------------------------------------------------------|
A|3-----------3---3-----------0---3-----------3---3---------------|
E|------------------------3---------------------------0---1-------|

G|----------------------------------------------------------------|
D|------------------------5---------------------------------------|
A|--------------------------------------------------------5-------|
E|3-----------3---3---------------3-----------3---3-----------3---|

1:44

G|----------------------------------------------------------------|
D|----------------------------------------------------------------|
A|------------------------3-------------------------------3-------|
E|1-----------1---1---------------1-----------1---1---------------|

G|----------------------------------------------------------------|
D|3-----------3-------------------3-----------3-------2---0-------|
A|------------------------3---------------------------------------|
E|--------------------1-------------------------------------------|

G|----------------------------------------------------------------|
D|----------------------------------------------------------------|
A|3-----------3---3---------------3-----------3---3-------2---0---|
E|----------------------------------------------------------------|

G|----------------------------------------------------------------|
D|----------------------------------------------------------------|
A|----------------------------------------------------2-----------|
E|3-----------3---3---------------3-----------3---3-------0-------|

G|----------------------------------------------------------------|
D|----------------------------------------------------------------|
A|--------------------------------3-----------3---3---------------|
E|1-----------1---1-------------------------------------------0---|

2:05

G|----------------------------------------------------------------|
D|----------------------------------------------------------------|
A|----------------------------------------------------------------|
E|1-----------1---1---------------2-----------2---2---------------|

G|----------------------------------------------------------------|
D|----------------------------------------------------------------|
A|----------------------------------------------------------------|
E|3-----------3---3-------3-------3---------------1-------3-------|

2:14

G|----------------------------------------------------------------|
D|----------------------------------------------------------------|
A|3-----------3---3---------------3-----------3---3-----------0---|
E|------------------------1-------------------------------3-------|

G|----------------------------------------------------------------|
D|----------------------------------------------------------------|
A|3-----------3---3-----------0---3-----------3---3-------2---0---|
E|------------------------3---------------------------------------|

G|----------------------------------------------------------------|
D|------------------------5---------------------------------------|
A|----------------------------5-----------------------------------|
E|3-----------3---3---------------3-----------3---1-------3-------|

2:26

G|----------------------------------------------------------------|
D|----------------------------------------------------------------|
A|3-----------3---3---------------3-----------3---3-----------0---|
E|------------------------1-------------------------------3-------|

G|----------------------------------------------------------------|
D|----------------------------------------------------------------|
A|3-----------3---3-----------0---3-----------3---3-------2---0---|
E|------------------------3---------------------------------------|

G|--------------------------------------------------------7-------|
D|--------------------------------5-----------5---5---------------|
A|------------------------5---------------------------------------|
E|3-----------3---3-----------3-----------------------------------|

G|10----------9-----------7-----------5-----------4-------2-------|
D|----------------------------------------------------------------|
A|----------------------------------------------------------------|
E|----------------------------------------------------------------|

G|----------------------------------------------------------------|
D|5-----------3-----------2-----------0---------------------------|
A|----------------------------------------------------------------|
E|------------------------------------------------1-------3-------|

2:48

G|----------------------------------------------------------------|.
D|----------------------------------------------------------------|.
A|3-----------3---3---------------3-----------3---3-----------0---|.
E|------------------------1-------------------------------3-------|.
                                                                   .
G|----------------------------------------------------------------|.
D|----------------------------------------------------------------|. x2 to fadeout.
A|3-----------3---3-----------0---3-----------3---3-------2---0---|.
E|------------------------3---------------------------------------|.
                                                                   .
G|----------------------------------------------------------------|.
D|----------------------------------------------------------------|.
A|------------------------5---------------------------------------|.
E|3-----------3---3-----------3---3-----------3---1-------3-------|.

            
            
Suggest correction
Creating personal tab
Creating personal tab
You can edit any tab online and save it as your Personal.

You can edit, replace or remove any tab part or add personal notes – all changes will be seen only by you.

Personal tabs can be accessed anytime from any device, even offline.
Learn more »
Give kudos to tab author, rate the tab!
1 2 3 4 5
comments
print report bad tab
guest
You may want to rate the tab now too:
select rating
Wanna post a correction for this tab? Suggest correction