Oops, an error
Loading. Please wait.

Rhinestone Cowboy Bass Tab

version 2
version 2

Whole song

  • Campbell's version reached number 1 on the Billboard Hot 100.

Interactive

31 views 3 this week
no commentswrite comment
1 2 3 4 5
3 more votes to show rating
add to favorites
launch autoscroll
font size
0
reset
guitar tuner
Autoscroll
slow
fast
+/-
esc
set tempo
stop
Help us to improve Ultimate-Guitar.com Take our survey!
×
Author
Difficulty
novice
About this tab version
Campbell's version reached number 1 on the Billboard Hot 100. Was this info helpful? Yes No
  Intro                                                          I've
G|----------------|----------------|----------------|----------------|
D|----------------|----------------|----------------|----------------|
A|3-------3-------|3-------3-------|3-----3-3-------|3-----3-3-------|
E|----------------|--------------3-|----------------|----------------|

  Verse
G|----------------|----------------|----------------|----------------|
D|----------------|----------------|----------------|----------------|
A|3-----3-3-------|3-----3-3-------|3-----3-3-------|3-----3-3-------|
E|----------------|----------------|----------------|----------------|

G|----------------|----------------|----------------|----------------|
D|----------------|----------------|----------------|----------------|
A|3-----3-3-------|3-----3-3-------|----------------|----------------|
E|----------------|------------0-1-|3-----3-3-------|3-----3-3-------|

G|----------------|----------------|----------------|----------------|
D|----------------|----------------|----------------|----------------|
A|----------------|----------------|----------------|----------------|
E|1-----1-1-------|1-----1-1-------|1-----1-1-------|1-----1-1-------|

G|----------------|----------------|----------------|----------------|
D|----------------|----------------|----------------|----------------|
A|3-----3-3-------|3-----3-3---2-0-|----------------|----------------|
E|----------------|----------------|3-----3-3-------|3-----3-3-------|

G|----------------|----------------|----------------|----------------|
D|----------------|----------------|----------------|----------------|
A|----------------|3-----3-3-------|----------------|----------------|
E|1-----1-1-------|----------------|1-----1-1-------|2-----2-2-------|

G|----------------|----------------|
D|----------------|----------------|
A|----------------|----------------|
E|3-----3-3-------|3-------1---3---|

  Chorus
G|----------------|----------------|----------------|----------------|
D|----------------|----------------|----------------|----------------|
A|3-----3-3-------|3-----3-3-----0-|3-----3-3-----0-|3-----3-3-------|
E|------------1---|------------3---|------------3---|----------------|

G|----------------|0---------------|----------------|----------------|
D|--------------0-|------0---------|----------------|----------------|
A|----------------|----------------|3-----3-3-------|3-----3-3-----0-|
E|3-----3-3-------|--------1---3---|------------1---|------------3---|

G|----------------|----------------|----------------|0-----0-0-------|
D|----------------|----------------|--------------0-|----------------|
A|3-----3-3-------|3-----3-3-------|----------------|----------------|
E|----------------|----------------|3-----3-3-------|----------------|

G|----------------|----------------|0---------------|------------0---|
D|3-----2-----0---|----------------|------3-----2---|--0-----3-------|
A|----------------|--3-----2---0---|----------------|----------------|
E|----------------|----------------|----------------|----------------|

  Verse
G|----------------|----------------|----------------|----------------|
D|----------------|----------------|----------------|----------------|
A|3-----3-3-------|3-----3-3-------|3-----3-3-------|3-----3-3-------|
E|----------------|----------------|----------------|----------------|

G|----------------|----------------|----------------|----------------|
D|----------------|----------------|----------------|----------------|
A|3-----3-3-------|3-----3-3-------|----------------|----------------|
E|----------------|------------0-1-|3-----3-3-------|3-----3-3-------|

G|----------------|----------------|----------------|----------------|
D|----------------|----------------|----------------|----------------|
A|----------------|----------------|----------------|----------------|
E|1-----1-1-------|1-----1-1-------|1-----1-1-------|1-----1-1-------|

G|----------------|----------------|----------------|----------------|
D|----------------|----------------|----------------|----------------|
A|3-----3-3-------|3-----3-3---2-0-|----------------|----------------|
E|----------------|----------------|3-----3-3-------|3-----3-3-------|

G|----------------|----------------|----------------|----------------|
D|----------------|----------------|----------------|----------------|
A|----------------|3-----3-3-------|----------------|----------------|
E|1-----1-1-------|----------------|1-----1-1-------|2-----2-2-------|

G|----------------|----------------|
D|----------------|----------------|
A|----------------|----------------|
E|3-----3-3-------|3-------1---3---|

  Chorus
G|----------------|----------------|----------------|----------------|
D|----------------|----------------|----------------|----------------|
A|3-----3-3-------|3-----3-3-----0-|3-----3-3-----0-|3-----3-3-------|
E|------------1---|------------3---|------------3---|----------------|

G|----------------|0---------------|----------------|----------------|
D|--------------0-|------0---------|----------------|----------------|
A|----------------|----------------|3-----3-3-------|3-----3-3-----0-|
E|3-----3-3-------|--------1---3---|------------1---|------------3---|

G|----------------|----------------|----------------|0-----0-0-------|
D|----------------|----------------|--------------0-|----------------|
A|3-----3-3-------|3-----3-3-------|----------------|----------------|
E|----------------|----------------|3-----3-3-------|----------------|

G|----------------|----------------|0---------------|------------0---|
D|3-----2-----0---|----------------|------3-----2---|--0-----3-------|
A|----------------|--3-----2---0---|----------------|----------------|
E|----------------|----------------|----------------|----------------|

Keep repeating the Chorus
Suggest correction
Give kudos to tab author, rate the tab!
1 2 3 4 5
comments
print report bad tab
guest
You may want to rate the tab now too:
select rating
Wanna post a correction for this tab? Suggest correction