Oops, an error
Loading. Please wait.

Wichita Lineman Bass Tab

version 1
version 1

Whole song

  • The BBC referred to this song as "one of those rar... Show more

Interactive

64 views 3 this week
no commentswrite comment
1 2 3 4 5
3 more votes to show rating
add to favorites
launch autoscroll
font size
0
reset
guitar tuner
Autoscroll
slow
fast
+/-
esc
set tempo
stop
Help us to improve Ultimate-Guitar.com Take our survey!
×
Author
Difficulty
novice
About this tab version
The BBC referred to this song as "one of those rare songs that seems somehow to exist in a world of its own – not just timeless but ultimately outside of modern music". Was this info helpful? Yes No
  Intro
G|--------3-------|----------------|--------3-------|----------------|
D|----------2-0---|----------------|----------2-0---|----------------|
A|--------------3-|----------------|--------------3-|----------------|
E|----------------|1-----1-1-----1-|1---------------|1-----1-1-------|

  Verse
G|----------------|----------------|----------------|----------------|
D|----------------|----------------|----------------|----------------|
A|3---------------|1-----1-1-----1-|0-----0-0-----0-|3-----3-3-----3-|
E|----------------|----------------|----------------|------------3---|
    I am  line the county                 and        road

G|----------------|----------------|----------------|----------------|
D|0-----0---------|----------------|0-----0-0-------|0---------------|
A|--------0-----0-|----------------|------------0---|----------------|
E|----------------|3-----3-3-------|----------------|----------------|

G|----------------|----------------|----------------|----------------|
D|----------------|----------------|----------------|----------------|
A|3-----3-3-------|3-----3-3-------|2-----2-2-------|1-----1-1-------|
E|--------------3-|----------------|----------------|----------------|

G|----------------|----------------|----------------|----------------|
D|----------------|----------------|----------------|----------------|
A|0-----0-0-------|0-----0-0-------|1---------------|3---------------|
E|----------------|----------------|----------------|----------------|

G|----------------|
D|----------------|
A|1---------------|
E|----------------|

 Verse
G|----------------|----------------|----------------|----------------|
D|----------------|----------------|----------------|----------------|
A|3---------------|1-----1-1-----1-|0-----0-0-----0-|3-----3-3-----3-|
E|----------------|----------------|----------------|------------3---|

G|----------------|----------------|----------------|----------------|
D|0-----0---------|----------------|0-----0-0-------|0---------------|
A|--------0-----0-|----------------|------------0---|----------------|
E|----------------|3-----3-3-------|----------------|----------------|

G|----------------|----------------|----------------|----------------|
D|----------------|----------------|----------------|----------------|
A|3-----3-3-------|3-----3-3-------|2-----2-2-------|1-----1-1-------|
E|--------------3-|----------------|----------------|----------------|

G|----------------|----------------|----------------|----------------|
D|----------------|----------------|----------------|----------------|
A|0-----0-0-------|0-----0-0-------|1---------------|3---------------|
E|----------------|----------------|----------------|----------------|

G|----------------|
D|----------------|
A|1---------------|
E|----------------|

 Verse
G|----------------|----------------|----------------|----------------|
D|----------------|----------------|----------------|----------------|
A|3---------------|1-----1-1-----1-|0-----0-0-----0-|3-----3-3-----3-|
E|----------------|----------------|----------------|------------3---|

G|----------------|----------------|----------------|----------------|
D|0-----0---------|----------------|0-----0-0-------|0---------------|
A|--------0-----0-|----------------|------------0---|----------------|
E|----------------|3-----3-3-------|----------------|----------------|

G|----------------|----------------|----------------|----------------|
D|----------------|----------------|----------------|----------------|
A|3-----3-3-------|3-----3-3-------|2-----2-2-------|1-----1-1-------|
E|--------------3-|----------------|----------------|----------------|

G|----------------|----------------|----------------|----------------|
D|----------------|----------------|----------------|----------------|
A|0-----0-0-------|0-----0-0-------|1---------------|3---------------|
E|----------------|----------------|----------------|----------------|

G|----------------|
D|----------------|
A|1---------------|
E|----------------|

  Outro
G|----------------|----------------|----------------|----------------|
D|----------------|----------------|----------------|----------------|
A|3---------------|1-1---1-----1---|3-------3-------|1-----1-------1-|
E|----------------|----------------|------3---------|----------------|

G|----------------|----------------|----------0-----|----------------|
D|----------------|----------------|--------2---2---|----------------|
A|3-----3-3---3---|1-----1-1-------|3-------------3-|1-----1-1-------|
E|----------3-----|----------------|----------------|----------------|

G|----------------|----------------|----------------|----------------|
D|----------------|----------------|----------------|----------------|
A|3-----3-3-----3-|1-----1-1-------|3-----3-3---3---|1-----1-1-------|
E|------------3---|----------------|----------3-----|----------------|
Suggest correction
Give kudos to tab author, rate the tab!
1 2 3 4 5
comments
print report bad tab
guest
You may want to rate the tab now too:
select rating
Wanna post a correction for this tab? Suggest correction