Oops, an error
Loading. Please wait.

Wedding Ring chords

1,381 views 15 this week
no commentswrite comment
1 2 3 4 5
x 5
add to favorites
×
Save as Personal and add changes to this tab that will be seen only by you. Learn more ›
×
You can save this tab as Personal to edit and correct it or add notes. All changes will be seen only by you. Learn more »
launch autoscroll
font size
0
reset
transpose
0
reset
simplify chords
display chords
guitar tuner
edit
Autoscroll
slow
fast
+/-
esc
set tempo
stop
Strumming
There is no strumming pattern for this song yet. and get +5 IQ
====================================
=== Wedding Ring by Glen Hansard ===
====================================

This is my first tab so be kind. Open to any suggestions!

This song is pretty easy. It's really just three chord formations (E, A, and B7)
strummed with the thumb throughout. Note the upstroke and downstroke symbols 
to indicate the rhythm. Listen to the album to get the feel for this one. Good luck!


^ = downstroke
v = upstroke

    E pattern
e|-(0)-------(0)--------(0)-------(0)----------------------------------------|
B|-(0)-------(0)--------(0)-------(0)----------------------------------------|
G|--9---------9----------9---------9-----------------------------------------|
D|--9---------9----------9---------9-----------------------------------------|
A|--9h11------11---------9---------11----------------------------------------|
E|--0---------0----------0---------0-----------------------------------------|
    ^         v          ^         v (strum to end of measure)


    A pattern
e|--0---------0----------0---------0-----------------------------------------|
B|--10--------10---------9---------10----------------------------------------|
G|--9---------9----------9---------9-----------------------------------------|
D|--9h11------11---------11--------11----------------------------------------|
A|--0---------0----------0---------0-----------------------------------------|
E|--x---------x----------x---------0-----------------------------------------|
    ^         v          ^         v (strum to end of measure)


    B7 pattern
e|--5------------------------------------------------------------------------|
B|--5------------------------------------------------------------------------|
G|--6------------------------------------------------------------------------|
D|--5------------------------------------------------------------------------|
A|--7------------------------------------------------------------------------|
E|--5------------------------------------------------------------------------|
    ^     (This one is just strummed normally to end of measure)

That's really all there is to the tab. The chord progression is shown below.


[Intro]
E  A  E  E  A  A  E  E  B7  A  E  E  

[Verse 1]
E                               A
Where you running to now, baby?
                E             E
Running all the time.
          A                     A
Where you running to now, darlin'?
                    E             E
Running to all the time.
         B7
Well, I sure hope it’s to your sister
A                                  E
 And not that mean brother of mine.

E                                       A
I’ve been trying to reach you, darlin'.
                     E              E
I try, I try in vain.
          A                     A
I’ve been trying to reach you, darlin'.
                       E        E
Though I try, I try in vain.
         B7                 
I always end up losing you
A                         E
  And walking home in the rain.


[Chorus]
E
  Wedding ring, wedding ring;
A                     E      E
  Little band of gold.
        A 
Wedding ring, wedding ring;
                      E      E
Little band of gold.
              B7
Will you be strong enough to keep her,
A                             E      E
   Keep her love from going cold?


[Verse 2]
E                                A
There’s a wildcat in you, woman,
                     E             E
   A wildcat on the prowl.
          A                     A
There’s a wildcat in you, woman,
                  E             E
A wildcat on the prowl.
      B7
Every time I put my arms around you
A                             E
I can hear that wildcat growl.

E                         A      
I remember when I met you
                                 E             E
There was something about the moon.
  A                            A
I remember the night I met you
                                 E             E
There was something about the moon.
                 B7
I don’t know if it was waxing or waning,
A                                   E
   But I knew that you’d be leaving soon.


[Chorus x2]
E
  Wedding ring, wedding ring;
A                     E      E
  Little band of gold.
        A 
Wedding ring, wedding ring;
                      E      E
Little band of gold.
              B7
Will you be strong enough to keep her,
A                             E      E
   Keep her love from going cold?


[Outro]
              B7
Will you be strong enough to keep her,
A                             E
To keep her love from getting old?
              B7
Will you be strong enough to keep her,
A                             E
To keep her love from going cold?
Suggest correction
Creating personal tab
Creating personal tab
You can edit any tab online and save it as your Personal.

You can edit, replace or remove any tab part or add personal notes – all changes will be seen only by you.

Personal tabs can be accessed anytime from any device, even offline.
Learn more »
comments
print report bad tab
guest
You may want to rate the tab now too:
select rating
Wanna post a correction for this tab? Suggest correction