Oops, an error
Loading. Please wait.
We have Chord Pro version of Falling Slowly.
It's the closest thing you can get to the original song and it has interactive parts. Check out the tab »
×
9,403 views 9 this week
1 commentread comment
1 2 3 4 5
x 3
add to favorites
launch autoscroll
font size
0
reset
guitar tuner
Autoscroll
slow
fast
+/-
esc
set tempo
stop
Difficulty
novice
(This tab is just a guideline, by no means do you have to play it exactly like this, but 
are the notes)

Guitar Intro, come in at about 0:15 as singing starts:

Verse 1:
G --------------------------------------------------------------------------|
D ----0--2-2-----0--3-3------0--2-2----------------0--2-2------0-3-3------0-|
A --3---------3-----------3----------3-3-3-3----3-----------3----------3----|
E --------------------------------------------------------------------------|

----------------------|
-2-2------------------|
------3-3-3-3---------|
----------------------|

Bridge:
--------------------------------------------|
--------------------------------------------|
-0-0-----------------0-0--------------------|
------3-3--1-1--3-3-------3-3--1------------|

Chorus:
---------------------------------------------|
---------------------------------------------|(X2)
-3-3-3-3-----------0-0-0-0-------------------|
----------1-1-1-1-----------1----------------|

Verse:
---------------------------------------------|
----0-2-2-----0-3-3-----0-2-2----------------|(X2)
-3---------3---------3---------3-3-3-3-------|
---------------------------------------------|

Bridge:
---------------------------------------------|
---------------------------------------------|
-0-0-----------------0-0---------------------|
------3-3--1-1--3-3-------3-3--1-1-----------|

Chorus:
---------------------------------------------|
---------------------------------------------|(X3)
-3-3-3-3-----------0-0-0-0-------------------|
----------1-1-1-1-----------1----------------|

Then a guitar outro, I believe you can just play C(A string third fret) throughout it if 
want.

Thanks,
B Dunn
Suggest correction
Give kudos to tab author, rate the tab!
1 2 3 4 5
comments
print report bad tab
1 comment total.
0 reply
WillardHewitt 10 Jul 07, 2010 01:44 PM

At the end of each note-grouping in the verses should be an open D (or 2nd fret, respectably).
It should read as such:
Verse:
---------------------------------------------|
----0-2-0-----0-3-2-----0-2-0----------------|(X2)
-3---------3---------3---------3-3-3-3-------|
---------------------------------------------|

Other than that, it's perfect, and I thank you profusely!

guest
Wanna post a correction for this tab? Suggest correction