Oops, an error
Loading. Please wait.

Falling Slowly Bass Tab

version 2
version 2

Whole song

Interactive

887 views 1 this week
no commentswrite comment
1 2 3 4 5
1 last vote to show rating
add to favorites
launch autoscroll
font size
0
reset
guitar tuner
Autoscroll
slow
fast
+/-
esc
set tempo
stop
Help us to improve Ultimate-Guitar.com Take our survey!
×
Author
Difficulty
intermediate
*Must play after the guitar solo. wait until the singing part comes out about (0,15)of the song

The beginning part of the song
Verse
G----------------------------------------------------------------------------|
D----------------------------------------------------------------------------|
A--3-------3--------3---------3---------3------------3--------3-------3------|
E-----1--------1---------1---------1-----------1----------1-------1------1---|

Bridge

G----------------------------------------------------------------|
D----------------------------------------------------------------|
2)A--00------------00--------------------------------------------|
E------33-11-33-------33--11-------------------------------------|

Chorus

G------------------------------------------------|
D------------------------------------------------| (X2)
A-3333-------0000--------------------------------|
E-------1111--------1----------------------------|
Suggest correction
Give kudos to tab author, rate the tab!
1 2 3 4 5
comments
print report bad tab
guest
You may want to rate the tab now too:
select rating
Wanna post a correction for this tab? Suggest correction