Oops, an error
Loading. Please wait.
We have Chord Pro version of Falling Slowly.
It's the closest thing you can get to the original song and it has interactive parts. Check out the tab »
×
751 views 6 this week
2 commentsread comments
1 2 3 4 5
x 6
add to favorites
×
Save as Personal and add changes to this tab that will be seen only by you. Learn more ›
×
You can save this tab as Personal to edit and correct it or add notes. All changes will be seen only by you. Learn more »
launch autoscroll
font size
0
reset
transpose
0
reset
simplify chords
display chords
guitar tuner
edit
Autoscroll
slow
fast
+/-
esc
set tempo
stop
Author
Difficulty
Strumming
There is no strumming pattern for this song yet. and get +5 IQ
This is written for a low G string but it can be played with a high G.


     Gcea
Am:  2000
Am2: 2003
C:   0003
G:   0232
F:   2010
F2:  2013

[Intro]

  C                     F
a|3--------------------|3-----------------|
e|------------0--------|--------1----0----|
c|0---2----------2-----|0---2-------------|
G|--0---0------0---0---|--2---2---2----2--|


  C                F
a|3----------------3|---------------|
e|--------0---------|---------------|
c|0---2--------2----|---0---0---0---|
G|--0---0---0------2|-----2---2---2-|


[Verse 1]


  C                     F
a|3--------------------|3-----------------|
e|------------0--------|--------1----0----|
c|0---2----------2-----|0---2-------------|
G|--0---0------0---0---|--2---2---2----2--|
  I   don't   know you, but I   want   you

  C                F
a|3----------------3|---------------|
e|--------0---------|---------------|
c|0---2--------2----|---0---0---0---|
G|--0---0---0------2|-----2---2---2-|
  all the more for that...

  C                         F
a|3------------------------|3------------------|
e|-----------0-------------|---------1----0----|
c|0-----2------------2-----|0---2--------------|
G|--0-----0----0-------0---|--2---2----2----2--|
  Words fall through me and al- ways fool me

  C                F
a|3----------------3|---------------|
e|--------0---------|---------------|
c|0---2---------2---|---0---0---0---|
G|--0---0---0------2|-----2---2---2-|
  and I   can't re-act

[Bridge]


  Am         G          F         G
a|0----------2---------|0---------2----------------|
e|0----------3---------|1---------3----------------|
c|0-----0----2-----2---|0-----0---2---------2------|
G|--2-----2----0-----0-|--2-----2------0------0----|
  Games that never a-   mount to  more than they're

  Am         G                F(strum once)
a|0----------2---------------|0~-------------------|
e|0----------3---------------|1~-------------------|
c|0-----0----2--------2------|0~-------------------|
G|--2-----2-------0-----0----|2~-------------------|
  meant will play themselves  out....


[Chorus 1]
(This is strummed chords only, strum pattern: D-D-DUD-)

C                  F2                Am2                   F
Take this sinking  boat and point it home we've still got  time
C                  F2                Am2                   F
Raise your hopeful voice you have a  choice you've made it known

[Verse 2]


  C                     F
a|3--------------------|3-------------------|
e|------------0--------|----------1----0----|
c|0---2----------2-----|0----2--------------|
G|--0---0------0---0---|--2----2----2----2--|
  Falling     slowly,   eyes that know me

  C                 F
a|3-----------------3-|---------------|
e|--------0-----------|---------------|
c|0---2---------2-----|---0---0---0---|
G|--0---0---0-------2-|-----2---2---2-|
  and I   can't go  back

  C                   F
a|3------------------|3----------------|
e|-----------0-------|--------1----0---|
c|0-----2---------2--|0---2------------|
G|--0-----0---0-----0|--2---2----2---2-|
  Moods that take me, and e-  rase me

  C                 F
a|3-----------------3-|---------------|
e|--------0-----------|---------------|
c|0---2---------2-----|---0---0---0---|
G|--0---0---0-------2-|-----2---2---2-|
  and I'm pain- ted black

[Bridge 2]

  Am         G               F           G
a|0----------2--------------|0-----------2---------------|
e|0----------3--------------|1-----------3---------------|
c|0-----0----2---------2----|0-----0-----2-----------2---|
G|--2-----2------0--------0-|--2-----2----------0------0-|
  You   have suffered  e-    nough and   warred with your 

  Am         G                 F(strum once)
a|0----------2----------------|0~-------------------|
e|0----------3----------------|1~-------------------|
c|0-----0----2---------2------|0~-------------------|
G|--2-----2-------0------0----|2~-------------------|
  self  it's time that you     won...

[Chorus 2]

C                  F2                Am2                   F(strum down once)
Take this sinking  boat and point it home we've still got  time
C                  F2                Am2                   F(strum down once)
Raise your hopeful voice you have a  choice you've made it known
C                  F2                Am2                   F(strum down once)
Falling slowly     sing your mel-o-  dy I'll sing a-       long

[Outro]

  C                     F
a|3--------------------|3-----------------|
e|------------0--------|--------1----0----|
c|0---2----------2-----|0---2-------------|
G|--0---0------0---0---|--2---2---2----2--|

  C                F
a|3----------------3|---------------|
e|--------0---------|---------------|
c|0---2--------2----|---0---0---0---|
G|--0---0---0------2|-----2---2---2-|

  C                     F
a|3--------------------|3-----------------|
e|------------0--------|--------1----0----|
c|0---2----------2-----|0---2-------------|
G|--0---0------0---0---|--2---2---2----2--|

  C                F(strum)
a|3----------------0~|---------------|
e|--------0--------1~|---------------|
c|0---2--------2---0~|---------------|
G|--0---0---0------2~|---------------|

            
            
Suggest correction
Creating personal tab
Creating personal tab
You can edit any tab online and save it as your Personal.

You can edit, replace or remove any tab part or add personal notes – all changes will be seen only by you.

Personal tabs can be accessed anytime from any device, even offline.
Learn more »
comments
print report bad tab
2 comments total.
0 reply
wolfphoenix 10 Jun 11, 2016 11:30 PM

didn't like this contribution

guest
You may want to rate the tab now too:
select rating
Wanna post a correction for this tab? Suggest correction