Oops, an error
Loading. Please wait.

Falling Slowly Tab

version 5
version 5
5,369 views 3 this week
no commentswrite comment
1 2 3 4 5
please rate
add to favorites
launch autoscroll
font size
0
reset
how to read this tab
guitar tuner
Autoscroll
slow
fast
+/-
esc
set tempo
stop
Help us to improve Ultimate-Guitar.com Take our survey!
×
Author
Difficulty
intermediate
             
                |--------------------------------------|
                |------------FALLING SLOWLY------------|
                |--------------------------------------|
                |---GLEN HANSARD AND MARKETA IRGLOVA---|
                |--------------------------------------|
INFORMATION:
TUNNING: STANDARD (E B G D A E)
CHORUS: PLUCK STRINGS (A G B)

INTRO:

    C                       F                       C                       
E|--------------0-----------------------1-----0-----------------0--------|
B|--1-----3-----------3-----1-----3-----------------1-----3-----------3--|
G|-----0-----0-----0-----0-----2-----2-----2-----2-----0-----0-----0-----|
D|-----------------------------------------------------------------------|
A|--3-----------------------3-----------------------3--------------------|
E|-----------------------------------------------------------------------|


       F                            THEN
E|-----------------------------|    ||||
B|-----1-----1-----1-----1-----|   _||||_
G|--0-----2-----2-----2-----2--|  \\\\////
D|-----------------------------|   \\\///
A|-----3-----------------------|    \\//
E|-----------------------------|     \/

VERSE ONE:

    C                       F                       C                       
E|--------------0-----------------------1-----0-----------------0--------|
B|--1-----3-----------3-----1-----3-----------------1-----3-----------3--|
G|-----0-----0-----0-----0-----2-----2-----2-----2-----0-----0-----0-----|
D|-----------------------------------------------------------------------|
A|--3-----------------------3-----------------------3--------------------|
E|-----------------------------------------------------------------------|
    I  DON'T  KNOW  YOU     BUT  I  WANT  YOU       ALL  THE  MORE  FOR  


       F                         C                       F
E|-------------------------------------------0-----------------------1---|
B|-----1-----1-----1-----1-------1-----3-----------3-----1-----3---------|
G|--0-----2-----2-----2-----2-------0-----0-----0-----0-----2-----2------|
D|-----------------------------------------------------------------------|
A|-----3-------------------------3-----------------------3---------------|
E|-----------------------------------------------------------------------|
   THAT                          WORDS  FALL  THROUGH  ME  AND  ALWAYS

             C                       F                            THEN
E|-----0-----------------0-----------------------------------|    ||||
B|-----------1-----3-----------3-----1-----1-----1-----1-----|   _||||_
G|--2-----2-----0-----0-----0-----0-----2-----2-----2-----2--|  \\\\////
D|-----------------------------------------------------------|   \\\///
A|-----------3-----------------------3-----------------------|    \\//
E|-----------------------------------------------------------|     \/
    FOOL  ME  AND  I  CAN'T  REACT


BRIDGE:
E|--------0--------------------1---------------------0--------------|
B|--------------3--1--0--------------3---1--0--------------3--1--0--|
G|-----2-----2--------------2-----2---------------2-----2-----------|
D|------------------------------------------------------------------|
A|--0------------------------------------------0--------------------|
E|--------------3--------1-----------3---------------------3--------|
    GAMES  THAT  NEVER  AMOUNT  TO   MORE THAN THEY'RE MEANT WILL 

                           THEN
E|--------------------|    ||||
B|-----------------1--|   _||||_
G|-----------------2--|  \\\\////
D|--------------------|   \\\///
A|-----------------3--|    \\//
E|--------------------|     \/
  PLAY THEMSELVES OUT

CHORUS:

C                 F                 A MINOR              F
TAKE THIS SINKING BOAT AND POINT IT HOME WE'VE STILL GOT TIME

C                   F                 A MINOR               F
RAISE YOUR HOPEFULL VOICE YOU HAD THE CHOICE YOU'VE MADE IT KNOWN


VERSE TWO:

    C                       F                       C                       
E|--------------0-----------------------1-----0-----------------0--------|
B|--1-----3-----------3-----1-----3-----------------1-----3-----------3--|
G|-----0-----0-----0-----0-----2-----2-----2-----2-----0-----0-----0-----|
D|-----------------------------------------------------------------------|
A|--3-----------------------3-----------------------3--------------------|
E|-----------------------------------------------------------------------|
    FALLING  SLOWLY         EYES  THAT  KNOW  ME  AND  I  CAN'T  GO  


       F                         C                       F
E|-------------------------------------------0-----------------------1---|
B|-----1-----1-----1-----1-------1-----3-----------3-----1-----3---------|
G|--0-----2-----2-----2-----2-------0-----0-----0-----0-----2-----2------|
D|-----------------------------------------------------------------------|
A|-----3-------------------------3-----------------------3---------------|
E|-----------------------------------------------------------------------|
   BACK                          MOODS  THAT  TAKE  ME  AND ERASE  ME

             C                       F
E|-----0-----------------0-----------------------------------|    THEN
B|-----------1-----3-----------3-----1-----1-----1-----1-----|    ||||
G|--2-----2-----0-----0-----0-----0-----2-----2-----2-----2--|   _||||_
D|-----------------------------------------------------------|  \\\\////
A|-----------3-----------------------3-----------------------|   \\\///
E|-----------------------------------------------------------|    \\//
             AND  I'M  PAINTED  BLACK                              \/


BRIDGE:
E|--------0--------------------1---------------------0--------------|
B|--------------3--1--0--------------3---1--0--------------3--1--0--|
G|-----2-----2--------------2-----2---------------2-----2-----------|
D|------------------------------------------------------------------|
A|--0------------------------------------------0--------------------|
E|--------------3--------1-----------3---------------------3--------|
    YOU  HAVE  SUFFERED  ENOUGH  AND WARRED WITH YOURSELF IT'S  

E|------------------|     THEN
B|---------------1--|     ||||
G|---------------2--|    _||||_
D|------------------|   \\\\////
A|---------------3--|    \\\///
E|------------------|     \\//
  TIME THAT YOU WON        \/


CHORUS:

C                 F                 A MINOR              F
TAKE THIS SINKING BOAT AND POINT IT HOME WE'VE STILL GOT TIME

C                   F                 A MINOR               F
RAIDE YOUR HOPEFULL VOICE YOU HAD THE CHOICE YOU'VE MADE IT KNOWN

C              F               A MINOR            F
FALLING SLOWLY SING YOUR ME-LO-DY AND I'LL SING A-LONG


ENDING:
E|-----|
B|--1--|
G|--2--|
D|-----|
A|--3--|
E|-----|
Suggest correction
Give kudos to tab author, rate the tab!
1 2 3 4 5
comments
print report bad tab
guest
You may want to rate the tab now too:
select rating
Wanna post a correction for this tab? Suggest correction