Oops, an error
Loading. Please wait.
We have Chord Pro version of Falling Slowly.
It's the closest thing you can get to the original song and it has interactive parts. Check out the tab »
×
449 views 3 this week
no commentswrite comment
1 2 3 4 5
3 more votes to show rating
add to favorites
×
Save as Personal and add changes to this tab that will be seen only by you. Learn more ›
×
You can save this tab as Personal to edit and correct it or add notes. All changes will be seen only by you. Learn more »
launch autoscroll
font size
0
reset
how to read this tab
guitar tuner
edit
Autoscroll
slow
fast
+/-
esc
set tempo
stop
Author
-------------------------------------------------------------------------------
               Falling Slowly - Glen Hansard and Marketa Irglova
-------------------------------------------------------------------------------

For the version played in the musical copy and paste: 
http://tabs.ultimate-guitar.com/s/steve_kazee_and_cristin_milioti/falling_slowly_crd.htm



Tuning: Standard
 

Intro/ Verse:

   C                         Fadd9                     C                          Fadd9
e|--------------0-------------------------1-----0--------------------0-------------------------------------|
B|--1-----3-----------3-------1-----3-------------------1------3-----------3-------1-----1-----1-----1-----|
G|-----0-----0-----0-----0-------0-----0-----0-----0--------0-----0-----0-----0-------0-----0-----0-----0--|
D|---------------------------------------------------------------------------------------------------------|
A|--3---------------------------------------------------3--------------------------------------------------|
E|----------------------------1----------------------------------------------------1-----------------------|


Pre-Chorus:

   Am            G             F             G             Am            G                 F
e|------------------------------------------------------------------------------------------0--|
B|--------1-------0--------0----------1-------0--------0----------1-------0--------0--------1--|
G|--2----------------0----------2----------------0----------2----------------0--------------2--|
D|-----2-----2----------0----------3-----3----------0----------2-----2----------0-----------3--|
A|--0---------------------------0---------------------------0-------------------------------0--|
E|----------------3---------------------------3---------------------------3-----------------1--|


Chorus:

    C        Fadd9    Am7      Fadd9    F
e|---3--------3--------0--------3--------1---|
B|---1--------1--------1--------1--------1---|
G|---0--------0--------0--------0--------0---|
D|---2--------3--------2--------3--------3---|
A|---3--------0--------0--------0--------3---|
E|---x--------1--------x--------1--------1---|


Bridge:

     Fadd9    G9       Fadd9    G9       Fadd9    F
e|---3--------3--------3--------3--------3--------1---|
B|---1--------0--------1--------0--------1--------1---|
G|---0--------0--------0--------0--------0--------0---|
D|---3--------3--------3--------3--------3--------3---|
A|---0--------0--------0--------0--------0--------3---|
E|---1--------1--------1--------1--------1--------1---|

                                                            
All of the chords below are displayed above

Verse:


C
I don't know you
F
But I want you
C                    F
All the more for that
C    
Words fall through me
F
And always fool me
C                F 
And I can't react



Pre-Chorus:

    Am         G          F
And games that never amount
   G                     Am
To more than they're meant
     G                 F
Will play themselves out



Chorus:

C                 Fadd9             Am7
Take this sinking boat and point it home
                 Fadd9   F
We've still got time
C                   Fadd9            Am7
Raise your hopeful voice you have a choice
               Fadd9   F
You'll make it now



Verse:

C               F
Falling slowly, eyes that know me
C                   F
And I can't go back
C                      F
Moods that take me and erase me
C                     F
And I'm painted black



Pre-Chorus:

Am       G            F
You have suffered enough
    G                Am
And warred with yourself
     G             F
It's time that you won



C                 Fadd9             Am7
Take this sinking boat and point it home
                Fadd9   F
We've still got time
C                  Fadd9             Am7
Raise your hopeful voice you have a choice
               Fadd9   F
You've made it now
C              Fadd9         Am7
Falling slowly sing your melody
              Fadd9   F
I'll sing it loud



Bridge:


C    Fadd9    Am7    Fadd9

         G9
(Take it all)
              Fadd9        
(I played the cards too late)
           G9     Fadd9    F   
(Now youre gone)

            
            
Suggest correction
Creating personal tab
Creating personal tab
You can edit any tab online and save it as your Personal.

You can edit, replace or remove any tab part or add personal notes – all changes will be seen only by you.

Personal tabs can be accessed anytime from any device, even offline.
Learn more »
Give kudos to tab author, rate the tab!
1 2 3 4 5
comments
print report bad tab
guest
You may want to rate the tab now too:
select rating
Wanna post a correction for this tab? Suggest correction