Oops, an error
Loading. Please wait.

If You Want Me Tab

version 2
version 2

Intro

Whole song

22,674 views 3 this week
2 commentsread comments
1 2 3 4 5
excellent!
x 4
add to favorites
launch autoscroll
font size
0
reset
how to read this tab
guitar tuner
Tab Pro tools
  • play this tab
  • loop segment
  • change instrument
  • show fretboard
  • metronome
×
Best way to learn
"If You Want Me"
Autoscroll
slow
fast
+/-
esc
set tempo
stop
Contributor
Difficulty
novice
If You Want Me from Once (2007)
by Glen Hansard and Marketa Irglova

Note:
     I based it on Glen and Marketa's performance from the dvd that came with
     the OST. Hope you enjoy ^^

     ***Please ask permission from me before you use this tab for something
        else (like posting in another site and the like) other than personal
        use. Thank you. (just pm me in Ultimate Guitar)***
================================================================
tuning: standard
capo: 4th fret

repeat the chords through the whole song...

intro repeat 2x

-1----0----0----0----| 2x
-3----3----2----2----|
-2----3----2----0----|
------0----2----2----|
------1----0----0----|
------3----0----0----|

Are you really here or am I dreaming
I can’t tell dreams from truth
For it’s been so long since I have seen you
I can hardly remember your face anymore

-1----0----0----0----| 2x
-3----3----2----2----|
-2----3----2----0----|
------0----2----2----|
------1----0----0----|
------3----0----0----|
When I get really lonely and the distance calls its only silence
I think of you smiling with pride in your eyes a lover that sighs

Chorus
-1----0----0----1----| 2x
-3----3----2----3----|
-2----3----2----2----|
------0----2---------|
------1----0---------|
------3----0---------|
If you want me satisfy me
If you want me satisfy me

(short instrumental)
-1----0----0----0----|
-3----3----2----2----|
-2----3----2----0----|
------0----2----2----|
------1----0----0----|
------3----0----0----|

-1----0----0----0----| 2x
-3----3----2----2----|
-2----3----2----0----|
------0----2----2----|
------1----0----0----|
------3----0----0----|
Are you really sure that you believe me
When others say I lie
I wonder if you could ever despise me
You know I really try

-1----0----0----0----| 2x
-3----3----2----2----|
-2----3----2----0----|
------0----2----2----|
------1----0----0----|
------3----0----0----|
To be a better one to satisfy you for you’re everything to me
And I do what you ask me
If you let me be free

Chorus
-1----0----0----1----| 2x
-3----3----2----3----|
-2----3----2----2----|
------0----2---------|
------1----0---------|
------3----0---------|
If you want me satisfy me
If you want me satisfy me

(instrumental)
-1----0----0----0----| 2x
-3----3----2----2----|
-2----3----2----0----|
------0----2----2----|
------1----0----0----|
------3----0----0----|

Chorus
-1----0----0----1----| 2x
-3----3----2----3----|
-2----3----2----2----|
------0----2---------|
------1----0---------|
------3----0---------|
If you want me satisfy me
If you want me satisfy me
comments
print report bad tab
2 comments total.
0 reply
jiinhong wrote on August 2 2010, 11:26 am

Excellent :) thank you very much. i really couldn't find a perfect one but this, perfect :)

0 reply
risqice wrote on September 29 2013, 03:16 pm

Well, this version is really how Marketa played on live stage. Here, if you want to see her performance: http://www.youtube.com/watch?v=fAAj11EdKXY.
Thank you for posting this. Very good tab for a very nice song. :)

I want to post or [tab]
guest
You may want to rate the tab now too:
select rating
Please do not post tabs as comments. Select "correction" instead!