Oops, an error
Loading. Please wait.

If You Want Me Chords

version 3
version 3

Whole song

57,136 views 93 this week
5 commentsread comments
1 2 3 4 5
accurate
x 9
add to favorites
launch autoscroll
font size
0
reset
transpose
0
reset
simplify chords
display chords
guitar tuner
Autoscroll
slow
fast
+/-
esc
set tempo
stop
Help us to improve Ultimate-Guitar.com Take our survey!
×
Author
Difficulty
intermediate
-------------------------------------------------------------------------------
                      IF YOU WANT ME - Marketa Irglova
-------------------------------------------------------------------------------
Chords by: José López Ruano
E-mail:joseturambar@hotmail.com
@joselopezruano
 
Use capo un the 4th Fret.

THE CHORDS ARE:  


[Intro]

Dm, Gm, and A7


[Verse 1]

                Dm              Gm
Are you really here or am I dreaming
          A7                Dm
I can’t tell dreams from truth
                  Dm                Gm
for it’s been so long since I have seen you
              A7                   Dm
I can hardly remember your face anymore

   Dm              Gm
When I get really lonely
         A7                    Dm
and the distance causes our silence
   Dm              Gm
I think of you smiling
         A7                Dm
with pride in your eyes a lover that sighs

NOW THE PICKING PART:

  If you 
e|----1-----1-----1----1-----1------1----|
B|------3-----3----------3-----3---------|
G|--------2-----2-----------2----2-------|
D|-0-----------------0-------------------|
A|---------------------------------------|
E|---------------------------------------|


  want me
e|-3-----3-----3-----3-----3------3------|
B|---3-----3-----------3-----3-----------|
G|-----0-----0-----------0-----0---------|
D|---------------------------------------|
A|---------------------------------------|
E|-3---------------3---------------------|


  satis...
e|-----0-----0-----0------0-----0------0-|
B|-------2-----2------------2-----2------|
G|---------0-----0------------0-----0----|
D|---------------------------------------|
A|-0-------------------0-----------------|
E|---------------------------------------|


  ...fy me...
e|----1-----1-----1----1-----1------1----|
B|------3-----3----------3-----3---------|
G|--------2-----2-----------2----2-------|
D|-0-----------------0-------------------|
A|---------------------------------------|
E|---------------------------------------|

(Here comes the same: )


[Chorus]

If you want me satisfy me, if you want me satisfy me
If you want me satisfy me, if you want me satisfy me


[Verse 2]

Are you really sure that you’d believe me
when others say I lie
I wonder if you could ever despise me
when you know I really try
to be a better one to satisfy you
For your everything to me
and I’ll do what you ask me
if you’ll let me be, free


[Chorus]

If you want me satisfy me, if you want me satisfy me
If you want me satisfy me, if you want me satisfy me
If you want me satisfy me, if you want me satisfy me

Thank you and enjoy it!
ANY CORRECTIONS PLEASE CONTACT ME 
jose@ideasdelviento.com
Suggest correction
comments
print report bad tab
5 comments total. Showing first comments.
0 reply
.Turambar. 199 wrote on June 10 2008, 06:21 pm

sorry, the first tab is wrong because i write "if you"
and this move the first tab line.
If You
----1-----1-----1----1-----1------1----|
------3-----3----------3-----3---------|
--------2-----2-----------2----2-------|
-0-----------------0-------------------|
---------------------------------------|
---------------------------------------|

+1 reply
konasurfing 51 wrote on July 2 2009, 11:56 pm

hey the G should be a Gm i think, but other than that this is perfect

0 reply
.Turambar. 199 wrote on September 17 2009, 12:51 pm, edited on February 24 2014, 07:34 pm

Thank You!!

guest
You may want to rate the tab now too:
select rating
Wanna post a correction for this tab? Suggest correction