Oops, an error
Loading. Please wait.

When Your Minds Made Up Tab

version 2
version 2

Whole song

Interactive

42,952 views 9 this week
1 commentread comment
1 2 3 4 5
accurate
x 3
add to favorites
launch autoscroll
font size
0
reset
how to read this tab
guitar tuner
Autoscroll
slow
fast
+/-
esc
set tempo
stop
Help us to improve Ultimate-Guitar.com Take our survey!
×
Author
Difficulty
novice
-----------------------------------------------------------------------
When Your Mind’s Made Up – Glen Hansard and Marketa Irglova
-----------------------------------------------------------------------
Tabbed by: mac7jb


Tuning: Standard Tuning

Not perfect and not exactly how Glen plays it, but it sounds great and gives the song a 
sound even without the drum line.  Listen to the song to get the picking down and sync 
strumming in the second verse with the drumming.

Intro (Go thru once before starting the verse)-

e|--------------------------------------------------------------------|
B|-----1-------1-----1-------1-----1-------1-----1-------1-----3------|
G|---0---0---0-----0---0---0-----2---2---2-----2---2---2-----2---2----|
D|--------------------------------------------------------------------|
A|-3-------3-----3-------3-----0-------0-----0-------0----------------|
E|---------------------------------------------------------0----------|

e|--------------------------------------------------------------------|
B|-----3-----3-------3-----1-------1----------------------------------|
G|---2-----2---2---2-----2---2---2------------------------------------|
D|--------------------------------------------------------------------|
A|---------------------3-------3--------------------------------------|
E|-0-----0-------0----------------------------------------------------|

Verse 1 (Use the intro picking)-

So
If you ever want something
And you call, call
Then I’ll come running

To fight
And I’ll be at your door
When there’s nothing
Worth running for

Chorus 1-

e|--------------------------------------------------------------------|
B|-----1-------1-----1-------1-----3-------3-----3-------3-----1------|
G|---2---2---2-----2---2---2-----2---2---2-----2---2---2-----2---2----|
D|--------------------------------------------------------------------|
A|-0-------0-----0-------0---------------------------------3----------|
E|-----------------------------0-------0-----0-------0----------------|

e|--------------------------------------------------------------------|
B|-----1-----1-------1------------------------------------------------|
G|---2-----2---2---2--------------------------------------------------|
D|--------------------------------------------------------------------|
A|-3-----3-------3----------------------------------------------------|
E|--------------------------------------------------------------------|

When your mind’s made up
When your mind’s made up
There’s no point trying to change it

When your mind’s made up
When your mind’s made up
There’s no point trying to stop it

Verse 2 (Strumming the same rhythm as drumming)-

[C]
You see

        [Am]
You’re just like everyone

        [G]
When the shit falls

	[F]
All you want to do is run


[C]
Away

       [Am]
And hide all by yourself

	[G]
When your far from me

	[F]
There’s nothing else

Chorus 2 (continue strumming pattern)-

[Am]
When your mind’s made up

[G]
When your mind’s made up

[F]
There’s no point trying to change it


[Am]
When your mind’s made up

[G]
When your mind’s made up

[F]
There’s no point even talking


[Am]
When your mind’s made up

[G]
When your mind’s made up

[F]
There’s no point trying to fight it

Bridge (listen to the song for the exact singing, but same strumming as
	chorus)-


[Am]       [G]       [F]


Outro (same picking as verse 1)-

So
If you ever want something
And you call, call

END GUITAR

Then I’ll come running

| /  slide up
| \  slide down
| h  hammer-on
| p  pull-off
| ~  vibrato
| +  harmonic
| x  Mute note
===============================================================================
Suggest correction
Give kudos to tab author, rate the tab!
1 2 3 4 5
comments
print report bad tab
1 comment total.
0 reply
RJA5410 16 wrote on February 25 2008, 09:58 pm

not bad not bad at all man!!1 4*

guest
You may want to rate the tab now too:
select rating
Please do not post tabs as comments. Select "correction" instead!