Oops, an error
Loading. Please wait.

In The Mood Tab

version 2
version 2

Whole song

Interactive

17,396 views 36 this week
no commentswrite comment
1 2 3 4 5
accurate
x 3
add to favorites
launch autoscroll
font size
0
reset
how to read this tab
guitar tuner
Tab Pro tools
  • play this tab
  • loop segment
  • change instrument
  • show fretboard
  • metronome
Autoscroll
slow
fast
+/-
esc
set tempo
stop
####--------Glenn-Miller---In-the-mood-----------##---|
####-------------By-Stuart-Yeadon---------------##----|

This is the great solo song to play on guitar tabbed properly because the other isnt
so It is hard but a great song. For the Main Part on the A chord use fingers 4,2,3
and the finger for the bass lines. For the weird Cdim7 to Bm7 chord use a bar with
the 1st finger on the 2nd fret and use fingers 2 on the A string,3 on the D and 4
on the B string then over to the Bm7 with the 1st finger still barred and the 3rd
finger on the D string and the 2nd finger on the B string. ENJOY!!!!


      h - hammer on
      p - pull off
      b - bend string up
      r - release bend
      / - slide up
      \ - slide down
      v - vibrato (sometimes written as ~)
      t - right hand tap
      x - play 'note' with heavy damping

Tempo= 141
Intro

E----------0---5-5-5-5-5\4/5--0---------------------0-5---0-------------|
B--------------------------------5-4-3-2-1-0------2---------2----0h2p0--|
G------6-------------------------------------2----------------2--2------|
D--7-----------7-7-7-7-7\6/5-----------------2-------------------1------|
A------4---7------------------7--7-6-5-4-3-2----0----------------2------|
E--5--------------------------------------------------------------------|


E-----------------------------------------------------------------------|
B--------0h2p0-------2---0h2p0---------0h2p0----------------------------|
G--2-----2-----2---------2------2------2-----2-----2--------------------|
D-----4--0-------4-------0--------4----0--------4-----------------------|
A--------2---------------2-------------2--------------------------------|
E------------------------------------------------------0--2--4----------|

Tempo= 156
Main part

   A

E------5-----5-----5-----5---5-------------------------------|
B----5-----5-----5-----5-----5-------------------------------|
G--6-----6-----6-----6-------6-------------------------------|
D------------------------------------X2----------------------|
A--0---4---------4---0---4-------4---------------------------|
E------------0-------------0---------------------------------|

  D

E-----5-----5-----5-----5---5--------------------------------|
B---7-----7-----7-----7-----5--------------------------------|
G-7-----7-----7-----7-------7--------------------------------|
D-----7-------7-------7-------7------------------------------|
A-5---------------5------------------------------------------|
E---------5--------------------------------------------------|

   A

E------5-----5-----5-----5---5-------------------------------|
B----5-----5-----5-----5-----5-------------------------------|
G--6-----6-----6-----6-------6-------------------------------|
D------------------------------------------------------------|
A--0---4---------4---0---4-------4---------------------------|
E------------0-------------0---------------------------------|

  E7                         A6

E------7-----7-----7-----7---5--5----------------------------|
B----9-----9-----9-----9-----7--7----------------------------|
G--9-----9-----9-----9-------6-------------------------------|
D------------------0-----------------------------------------|
A------0-----------------------------------------------------|
E--0-------7---0-------7---0---------------------------------|

              D7   D#dim7

E--------5-----5-----5---------------------------------------|
B--------7-----7-----7-----8-7---7---------------------------|
G-----6-----6-----5-----5--8-7---6---------------------------|
D--------------------------7-6---5---------------------------|
A-0------4-----5-----6-----8-7---0---------------------------|
E------------------------------------------------------------|

2nd Part

   A            Cdim7 Bm7

E--5--2---5-----------------------0--------------------------|
B--5--2---5-------4----3----------0--------------------------|
G--2--------------2----2---------/6--------------------------|
D--2----2---------4----4------4--------x3--------------------|
A-----------------3----2--2/5--------------------------------|
E------------0-0-------------0-------------------------------|

   E         Edim             F9 E9   A13

E--0--0--0--0--0--0--0--0--------------5-----------------------|
B--5--5--5--5--5--5--5--5------8--7----7---X2-whole------------|
G--4--4--4--4--3--3--3--3------8--7----6-----of----------------|
D--6--6--6--6--5--5--5--5------7--6----5---2nd-part------------|
A------------------------------8--7----0-----------------------|
E--0-----------0---------------------0-------------------------|

Then play the Main part faster at a tempo of 168 to finish.
comments
We did not receive enough feedback on this tab! Please rate:
print report bad tab
1 2 3 4 5
I want to post or [tab]
guest
You may want to rate the tab now too:
select rating
Please do not post tabs as comments. Select "correction" instead!