Oops, an error
Loading. Please wait.

Akhir Cerita Cinta Tab

43,300 views 30 this week
no commentswrite comment
1 2 3 4 5
accurate
x 5
add to favorites
launch autoscroll
font size
0
reset
how to read this tab
guitar tuner
Autoscroll
slow
fast
+/-
esc
set tempo
stop
Help us to improve Ultimate-Guitar.com Take our survey!
×
Difficulty
novice
-------------------------------------------------------------------------------
                             Akhir Cerita Cinta - Glenn Fredly
-------------------------------------------------------------------------------
Tabbed by: Fr05tburn 
Email: N/A

Tuning: Standard

Intro:

   G                       C
e|-------3-----------------------3-------------------------------------------|
B|-0-----------0---------3-0h1---------1-------------------------------------|
G|-----0-----0---------0---0---------0---------------------------------------|
D|---0-----0---------0---------2---2-----------------------------------------|
A|-----------------2-------3-------------------------------------------------|
E|-3-------------------------------------------------------------------------|

Verse:

sandiwarakah selama ini 
setelah sekian lama kita t'lah bersama 

   G       Cadd9            Bm11    Em9       Cadd9      D/F#   
e|---------------------2----------------------------3------------------------|
B|-0-------------3----------------3-----------------3--------3---------------|
G|-0-----------0-----0----------2---------0-------0------2-----2-------------|
D|-0---------4-----4----------0---------4-------2----------0-----------------|
A|---------3----------------2---------2-------3------------------------------|
E|-3--------------------------------0--------------------2-------------------|

inikah akhir cerita cinta 
yang s'lalu aku banggakan didepan mereka 

   G         Cadd9                    Bm11       Em9         C#dim   Dsus4   D
e|-----------------3---------0--------------0----------------------------------|
B|-------0-------3---3----3----3----------3---3-----------2--------5-8-----8-7-|
G|-----0-------0--------0--------0------2--------------0---------4---7---7---7-|
D|---0-----------------------------4-----------------4---------5-----7-7-----7-|
A|-----------3------------------------2------------2---------4-------5-------5-|
E|-3---------------------------------------------0-----------------------------|

Bridge:

entah dimana kusembunyikan rasa malu

   Dm7        Gsus4   G  Cadd9    Bm11     Esus4   F#m11 G#m11
e|---------5-------------------3--------3------------------------------------|
B|-6-----6---------------------3--------3------------0-----------------------|
G|-----5------------5-4------0--------2----------2-2---4---------------------|
D|---7------------5--------2--------0----------2---2---4---------------------|
A|-5------------5--------3--------2----------2-------------------------------|
E|------------3----------------------------0-------2---4---------------------|

Chorus:

kini harus aku lewati 
sepi hariku tanpa 

   Asus2                 C#m7                    F#m11      Esus4
e|------------0-------0----------3-----------3-----------0-----------0-----|
B|-------2----------2----------5-----------5----------0-----------0--------|
G|-----4----4-----4----------4-----------4----------2-----------2----------|
D|---2----------2----------6-----------6----------2-----------2------------|
A|-0---------------------4-----------4-------------------------------------|
E|----------------------------------------------2-----------0--------------|

dirimu lagi

   DMaj7               Esus4
e|----------5----------------------------------------------------------------|
B|-------7-----------7-----7-5-----------------------------------------------|
G|-----6-----------6-----7---------------------------------------------------|
D|---7-----------7-----------------------------------------------------------|
A|-5-----------5-------7-----------------------------------------------------|
E|---------------------------------------------------------------------------|

biarkan kini ku berdiri 
melawan waktu

   Asus2                 C#m7                    F#m11       Esus4
e|------------0-------0----------3------------3-----------0-----------0-----|
B|-------2----------2----------5------------5----------0-----------0--------|
G|-----4----4-----4----------4------------4----------2-----------2----------|
D|---2----------2----------6------------6----------2-----------2------------|
A|-0---------------------4------------4-------------------------------------|
E|-----------------------------------------------2-----------0--------------|

'tuk melupakanmu
walau pedih hati
   
   D#dim      DMaj7                   F#       Bm7
e|----------0--------------------4-------------------------------------------|
B|-------7----------7--------5--------------0--------3-----3-------3-----3---|
G|-----6----------6--------4---4---4--------3------2-----2-------2-----2-----|
D|---7----------7--------6----------------4------4-----4-------4-----4-------|
A|-6----------5--------4----------------4------2-------------2---------------|
E|------------------------------------2--------------------------------------|

namun aku bertahan 

   E11            Asus2           Dm9/A            Asus2
e|-------2-----0---------------0---------------0-----------0-------0---------|
B|-----3-----3----------2----2----------3----3-----------2---2-----2---------|
G|---2-----4----------4----4----------2----2-----------4-------4---4---------|
D|-2----------------2---------------3----------------2-----------2-2---------|
A|----------------0---------------0----------------0---------------0---------|
E|---------------------------------------------------------------------------|


| /  slide up
| \  slide down
| h  hammer-on
| p  pull-off
| ~  vibrato
| +  harmonic
| x  Mute note
===============================================================================
Suggest correction
What's this?
You can suggest a correction to this tab. Community and Mods will review your correction and vote to approve or reject it.
comments
print report bad tab
guest
You may want to rate the tab now too:
select rating
Please do not post tabs as comments. Select "correction" instead!