Oops, an error
Loading. Please wait.

Gasoline Chords

367 views 1 this week
no commentswrite comment
1 2 3 4 5
2 more votes to show rating
add to favorites
launch autoscroll
font size
0
reset
transpose
0
reset
simplify chords
display chords
guitar tuner
Autoscroll
slow
fast
+/-
esc
set tempo
stop
Help us to improve Ultimate-Guitar.com Take our survey!
×
|-----------------------------|-----------------------------|
|-----------------------------|-----------------------------|
|-----------------------------|-----------------------------|
|-----------------------------|-----------------------------|
|----------------------3-0-5--|----------------------5-0-3--|
|--0-3-4-5-3-5-3-5-3-0--------|--0-3-4-5-3-5-3-5-3-0--------|

|-----------------------------||
|-----------------------------||
|--------------------5--------||
|----------------5-----7------||
|--------3---7-5---7----------||
|--0-3-5---5------------------||


A                              C   D
You're the black sheep of the family
A                   D       C   
And what you do is killing me
A                        C   D
And I don't wanna hang with you
           E       G   
Now I want you to see

A                              C         D
You know you're living with a one-track mind
A                    D        C   
I'm warning you I'm not that kind
A              C   D
You're just a memory
E                    G   
Now I'm leaving you behind

A         D                   A
Tell me, tell another lie to me
 D                       A
Tell me I will set you free
 D
Won't you let me be
         G                  D/F# (= 25XXXX)
Cuz you burn me with your gasoline

A                    C       D
I've been trying to turn my back
A                       D       C   
You know you give me a heart attack
A                C     D
I don't need no microphone
E                 G   
So why don't you hear me?



A                    C       D
You know you never were my friend
A                   D       C   
This is a letter I got to send
A                    C       D
I don't want you to follow me
E                 G   
But here you come again

SOLO:  Bm    E    Bm    E    Bm    E

Suggest correction
Give kudos to tab author, rate the tab!
1 2 3 4 5
comments
print report bad tab
guest
You may want to rate the tab now too:
select rating
Wanna post a correction for this tab? Suggest correction