Oops, an error
Loading. Please wait.

Nights In White Satin tab

version 1
version 1

Whole song

  • Tabbed from start to finish.
1 view 1 this week
no commentswrite comment
1 2 3 4 5
3 more votes to show rating
add to favorites
×
Save as Personal and add changes to this tab that will be seen only by you. Learn more ›
×
You can save this tab as Personal to edit and correct it or add notes. All changes will be seen only by you. Learn more »
launch autoscroll
font size
0
reset
how to read this tab
guitar tuner
edit
Autoscroll
slow
fast
+/-
esc
set tempo
stop
About this tab version
Tabbed from start to finish. Was this info helpful? Yes No
Tuning: standard

[Intro] 
(Clean Guitar)
                Em                  D/F#
e|------------|-0-0-0-0-0-0-0-0-0-|-------------------|
B|------------|-0-0-0-0-0-0-0-0-0-|-3-3-3-3-3-3-3-3-3-|
G|------------|-0-0-0-0-0-0-0-0-0-|-2-2-2-2-2-2-2-2-2-|
D|------------|-2-2-2-2-2-2-2-2---|-0-0-0-0-0-0-0-0-0-|
A|------------|-2-----2---2---2---|-0-----0-0-----0---|
E|------------|-0---------0-------|-2-------2---------|

   Em                   D/F#
e|-0-0-0-0-0-0--0-0-0-|----------------------|
B|-0-0-0-0-0-0--0-0-0-|-3-3-3-3-3-3-3-3------|
G|-0-0-0-0-0-0--0-0-0-|-2-2-2-2-2-2-2-2-0----|
D|-2-2-2-2-2-2--2-2---|-0-0-0-0-0-0-0-0-0----|
A|-2-----2---2----2---|-0-----0-0-----0------|
E|-0---------0--------|-2-------2------------|

[Verse 1] 
(Clean Guitar)    (Play 2 times)   
   Em                 D/F#                Em            D/F#
e|-0-0-0-0-0--0-0-0-|-------------------|-0--0-0-0--0-|------------------|
B|-0-0-0-0-0--0-0-0-|-3-3-3-3-3-3-3-3---|-0--0-0-0--0-|-3-3-3-3-3-3-3-3--|
G|-0-0-0-0-0--0-0-0-|-2-2-2-2-2-2-2-2-0-|-0--0-0-0--0-|-2-2-2-2-2-2-2-2--|
D|-2-2-2-2-2--2-2---|-0-0-0-0-0-0-0-0-0-|-2--2-2-2--2-|-0-0-0-0-0-0-0-0--|
A|-2-----2-2----2---|-0-----0-0-----0---|-2----2-2----|-0-----0-0--------|
E|-0-------0--------|-2-------2---------|-0------0----|-2-------2--------|

   C               G               F/C               Em
e|-0-0-0---0-----|-3-----3-----3-|-1-1-1-1-1-1-1-1-|-0-0-0-0-0-0-0-0-----|
B|-1-1-1-1-1-1-1-|-0-0-0-0-0-0-0-|-1-1-1-1-1-1-1-1-|-0-0-0-0-0-0-0-0-----|
G|-0-0-0-0-0-0-0-|-0-0-0-0-0-0-0-|-2-2-2-2-2-2-2-2-|-0-0-0-0-0-0-0-0-----|
D|-2-2-2-2-2-2-2-|-0-0-0-0-0-0-0-|-3-3-3-3-3-3-3-3-|-2-2-2-2-2-2-2-2-----|
A|-3-----3-3-3-3-|-x---x---------|-3-----3-------3-|-2-----2-2-----2-----|
E|---------------|-3---3---------|-----------------|-0-------0-----------|

[Verse 1] 
(Lead Guitar)  
 Part 1 (first half of verse)
e|---------------------------------------------------------------------------|
B|---------------------------------------------------------------------------|
G|---------------------------------------------------------------------------|
D|---------------------------------------------------------------------------|
A|---------------------------------------------------------------------------|
E|---------------------------------------------------------------------------|

 Part 2 (second half of verse)
e|---------------------------------------------------------------------------|
B|---------------------------------------------------------------------------|
G|---------------------------------------------------------------------------|
D|-------------------12-------------------------12---------------------------|
A|-14~~~----12-14-16----16-12-14~~~----12-14-16----16-14-10~~~-9~~~-7~~~-5~~~|
E|---------------------------------------------------------------------------|

[Chorus 1] 
(Clean Guitar)
   A                              C/G
e|--------------|-0-------0-----|-0-------0-------|-0-------0-------|
B|-2-2-2-2-2----|-2-2-2-2-2-----|-1-------1-------|-1-------1-------|
G|-2-2-2-2-2----|-2-2-2-2-2-2-2-|-0-0-0---0-0-0---|-0-0-0---0-0-0---|
D|-2-2-2-2-2----|-2-2-2-2-2-2-2-|-2-2-2-2-2-2-2-2-|-2-2-2-2-2-2-2-2-|
A|-0-----0-0----|-0-----0-0-0-0-|-3-3-3-3-3-3-3-3-|-3-3-3-3-3-3-3-3-|
E|--------------|---------------|-3-3-3-3-3-3-3-3-|-3-3-3-3-3-3-3-3-|

   Em              D/F#        Em                D/F#
e|-0-----0-0-0-0-|-----------|-0-----0-0-----0-|--------------|
B|-0-0-0-0-0-0-0-|-3----3----|-0-0-0-0-0-0-0-0-|-3----3-3-3---|
G|-0-0-0-0-0-0-0-|-2----2----|-0-0-0-0-0-0-0-0-|-2----2-2-2---|
D|-2-2-2-2-2-2-2-|-0----0----|-2-2-2-2-2-2-2-2-|-0----0-0-0---|
A|-2-2-2-2-2-2-2-|-0----0----|-2-2-2-2-2-2-2-2-|-0----0-0-0---|
E|-0-----0-0-0-0-|-2----2----|-0-----0-0-----0-|-2----2-2-2---|

[Chorus 1] 
(Lead Guitar)
e|-------------------------------------------------------------------------|
B|-------------------------------------------------------------------------|
G|-------------------------------------------------------------------------|
D|-------------------------------------------------------------------------|
A|-------------------------------------------------------------------------|
E|-------------------------------------------------------------------------|
 
e|-------------------------------------------------------------------------|
B|-------------------------------------------------------------------------|
G|-------------------------------------------------------------------------|
D|-------------------------------------------------------------------------|
A|14~--14-14-14-14\12~--12-12-12-12/14~--14-14-14-14-14\12~--12-12-12-12---|
E|12~--12-12-12-12\10~--10-10-10-10/12~--12-12-12-12-12\10~--10-10-10-10---|

[Verse 2] 
(Clean Guitar)    (Play 2 times)
   Em                 D/F#                Em            D/F#
e|-0-0-0-0-0--0-0-0-|-------------------|-0--0-0-0--0-|------------------|
B|-0-0-0-0-0--0-0-0-|-3-3-3-3-3-3-3-3---|-0--0-0-0--0-|-3-3-3-3-3-3-3-3--|
G|-0-0-0-0-0--0-0-0-|-2-2-2-2-2-2-2-2-0-|-0--0-0-0--0-|-2-2-2-2-2-2-2-2--|
D|-2-2-2-2-2--2-2---|-0-0-0-0-0-0-0-0-0-|-2--2-2-2--2-|-0-0-0-0-0-0-0-0--|
A|-2-----2-2----2---|-0-----0-0-----0---|-2----2-2----|-0-----0-0--------|
E|-0-------0--------|-2-------2---------|-0------0----|-2-------2--------|

   C               G               F/C               Em
e|-0-0-0---0-----|-3-----3-----3-|-1-1-1-1-1-1-1-1-|-0-0-0-0-0-0-0-0-||
B|-1-1-1-1-1-1-1-|-0-0-0-0-0-0-0-|-1-1-1-1-1-1-1-1-|-0-0-0-0-0-0-0-0-||
G|-0-0-0-0-0-0-0-|-0-0-0-0-0-0-0-|-2-2-2-2-2-2-2-2-|-0-0-0-0-0-0-0-0-||
D|-2-2-2-2-2-2-2-|-0-0-0-0-0-0-0-|-3-3-3-3-3-3-3-3-|-2-2-2-2-2-2-2-2-||
A|-3-----3-3-3-3-|-x---x---------|-3-----3-------3-|-2-----2-2-----2-||
E|---------------|-3---3---------|-----------------|-0-------0-------||

[Verse 2] 
(Lead Guitar) 
 Part 1
e|---------------------------------------------------------------------------|
B|---------------------------------------------------------------------------|
G|-------------------12-------------------------12---------------------------|
D|/14~~~----12-14-16----16-12-14~~~----12-14-16----16-14-10~~~-9~~~-7~~~-5~~~|
A|---------------------------------------------------------------------------|
E|---------------------------------------------------------------------------|

 Part 2
e|----------------15------------------------15-------------------------------|
B|-17~~~-15-17-19----19-15-17~~~---15-17-19----19-17-13~~~-12~~~-10~~~-8~~~--|
G|---------------------------------------------------------------------------|
D|---------------------------------------------------------------------------|
A|---------------------------------------------------------------------------|
E|---------------------------------------------------------------------------|

[Chorus 2]
(Lead Guitar)
e|-------------------------------------------------------------------------|
B|-------------------------------------------------------------------------|
G|-------------------------------------------------------------------------|
D|-------------------------------------------------------------------------|
A|-------------------------------------------------------------------------|
E|-------------------------------------------------------------------------|
 
e|-------------------------------------------------------------------------|
B|-------------------------------------------------------------------------|
G|-------------------------------------------------------------------------|
D|-------------------------------------------------------------------------|
A|14~--14-14-14-14\12~--12-12-12-12/14~--14-14-14-14-14\12~--12-12-12-12---|
E|12~--12-12-12-12\10~--10-10-10-10/12~--12-12-12-12-12\10~--10-10-10-10---|

[Solo]
(Lead Guitar)
e|------------14-15-14--------------14---------------------------------------|
B|-----17~~------------17-15~~---17----17-15---------15-17-16~~~~~~----------|
G|--/16---------------------------------------17~~~--------------------------|
D|---------------------------------------------------------------------------|
A|---------------------------------------------------------------------------|
E|---------------------------------------------------------------------------|

e|-------------14-15--17-15-14~--15-17-15-14------14-15-14~~~----------------|
B|------17~~---------------------------------17~-----------------------------|
G|--/16----------------------------------------------------------------------|
D|---------------------------------------------------------------------------|
A|---------------------------------------------------------------------------|
E|---------------------------------------------------------------------------|

e|---19~-19-18-17\15----------15-19~-19-18-17\15---------15-17~~--19br19-----|
B|-------------------17~~~-17--------------------17~~-17---------------------|
G|---------------------------------------------------------------------------|
D|---------------------------------------------------------------------------|
A|---------------------------------------------------------------------------|
E|---------------------------------------------------------------------------|

e|-19br17-19br19-19-19-19-19-24b-24b-24b24b24b24b24b24b24b24b24b24b24b24b----|
B|---------------------------------------------------------------------------|
G|---------------------------------------------------------------------------|
D|------------------------------------------------------------------------2~~|
A|------------------------------------------------------------------------2~~|
E|------------------------------------------------------------------------0~~|

[Bridge] 
(Clean Guitar)
   Em              D/F#        Em                D/F#
e|-0-----0-0-0-0-|-----------|-0-----0-0-----0-|-------------||
B|-0-0-0-0-0-0-0-|-3----3----|-0-0-0-0-0-0-0-0-|-3----3-3-3--||
G|-0-0-0-0-0-0-0-|-2----2----|-0-0-0-0-0-0-0-0-|-2----2-2-2--||
D|-2-2-2-2-2-2-2-|-0----0----|-2-2-2-2-2-2-2-2-|-0----0-0-0--||
A|-2-2-2-2-2-2-2-|-0----0----|-2-2-2-2-2-2-2-2-|-0----0-0-0--||
E|-0-----0-0-0-0-|-2----2----|-0-----0-0-----0-|-2----2-2-2--||

(Lead Guitar)
e|-------------------------------------------------------------------------|
B|-------------------------------------------------------------------------|
G|-------------------------------------------------------------------------|
D|-------------------------------------------------------------------------|
A|14~--14-14-14-14\12~--12-12-12-12/14~--14-14-14-14-14\12~--12-12-12-12---|
E|12~--12-12-12-12\10~--10-10-10-10/12~--12-12-12-12-12\10~--10-10-10-10---|

[Verse 3] 
(Clean Guitar)
   Em                 D/F#                Em            D/F#
e|-0-0-0-0-0--0-0-0-|-------------------|-0--0-0-0--0-|------------------|
B|-0-0-0-0-0--0-0-0-|-3-3-3-3-3-3-3-3---|-0--0-0-0--0-|-3-3-3-3-3-3-3-3--|
G|-0-0-0-0-0--0-0-0-|-2-2-2-2-2-2-2-2-0-|-0--0-0-0--0-|-2-2-2-2-2-2-2-2--|
D|-2-2-2-2-2--2-2---|-0-0-0-0-0-0-0-0-0-|-2--2-2-2--2-|-0-0-0-0-0-0-0-0--|
A|-2-----2-2----2---|-0-----0-0-----0---|-2----2-2----|-0-----0-0--------|
E|-0-------0--------|-2-------2---------|-0------0----|-2-------2--------|
 
   C               G               F/C               Em
e|-0-0-0---0-----|-3-----3-----3-|-1-1-1-1-1-1-1-1-|-0-0-0-0-0-0-0-0-----|
B|-1-1-1-1-1-1-1-|-0-0-0-0-0-0-0-|-1-1-1-1-1-1-1-1-|-0-0-0-0-0-0-0-0-----|
G|-0-0-0-0-0-0-0-|-0-0-0-0-0-0-0-|-2-2-2-2-2-2-2-2-|-0-0-0-0-0-0-0-0-----|
D|-2-2-2-2-2-2-2-|-0-0-0-0-0-0-0-|-3-3-3-3-3-3-3-3-|-2-2-2-2-2-2-2-2-----|
A|-3-----3-3-3-3-|-x---x---------|-3-----3-------3-|-2-----2-2-----2-----|
E|---------------|-3---3---------|-----------------|-0-------0-----------|

[Verse 1] 
(Lead Guitar)  
 Part 1 (first half of verse)
e|---------------------------------------------------------------------------|
B|---------------------------------------------------------------------------|
G|---------------------------------------------------------------------------|
D|---------------------------------------------------------------------------|
A|---------------------------------------------------------------------------|
E|---------------------------------------------------------------------------|

 Part 2 (second half of verse)
e|---------------------------------------------------------------------------|
B|---------------------------------------------------------------------------|
G|---------------------------------------------------------------------------|
D|-------------------12-------------------------12---------------------------|
A|-14~~~----12-14-16----16-12-14~~~----12-14-16----16-14-10~~~-9~~~-7~~~-5~~~|
E|---------------------------------------------------------------------------|

[Chorus 1] 
(Lead Guitar)
e|-------------------------------------------------------------------------|
B|-------------------------------------------------------------------------|
G|-------------------------------------------------------------------------|
D|-------------------------------------------------------------------------|
A|-------------------------------------------------------------------------|
E|-------------------------------------------------------------------------|
 
e|-------------------------------------------------------------------------|
B|-------------------------------------------------------------------------|
G|-------------------------------------------------------------------------|
D|-------------------------------------------------------------------------|
A|14~--14-14-14-14\12~--12-12-12-12/14~--14-14-14-14-14\12~--12-12-12-12---|
E|12~--12-12-12-12\10~--10-10-10-10/12~--12-12-12-12-12\10~--10-10-10-10---|


************************************

| x   Dead note
| ~   Vibrato
| /   Slide up
| \   Slide down
| br  Bend release
| b   Bend

************************************
Suggest correction
Creating personal tab
Creating personal tab
You can edit any tab online and save it as your Personal.

You can edit, replace or remove any tab part or add personal notes – all changes will be seen only by you.

Personal tabs can be accessed anytime from any device, even offline.
Learn more »
Give kudos to tab author, rate the tab!
1 2 3 4 5
comments
print report bad tab
guest
You may want to rate the tab now too:
select rating
Wanna post a correction for this tab? Suggest correction