Oops, an error
Loading. Please wait.

Standing On The Rock Bass Tab

505 views 1 this week
no commentswrite comment
1 2 3 4 5
3 more votes to show rating
add to favorites
launch autoscroll
font size
0
reset
guitar tuner
Autoscroll
slow
fast
+/-
esc
set tempo
stop
Help us to improve Ultimate-Guitar.com Take our survey!
×
Author
Standing On The Rock by Glenn Hughes
from Songs In The Key Of Rock

INTRO                                  x2
G---------------------------------------| 
D---------------------------------------| 
A---------------------------------------| 
E--2-2-2-2--1-1-1-1--6-6-6-6-6-6--4-4---|

G--------------------------------------------|
D--------------------------------------------|
A-----------4-4-4-4-----------6--8--8--8--8--|
E--2-2-2-2-----------4-4-4-4-----------------|

CHORUS
G--------------------------------------------|
D--------------------------------------------|
A--4-----------------------------------------|
E----6--0h4h6-6--0h4h6-6--0h4h6--------------|

G--------------------------------------------|
D--------------------------------------------|
A--4-------------------6-4-------------------|
E----6--0h4h6-6--0h4h6-----6-4---------------|

G--------------------------------------------|
D--------------------------------------------|
A--4-------------------------------6-6-6-----|
E----6--0h4h6-6--0h4h6-6-4--4-4-4------------|

IN CHORUS
G--10------------------------------|
D------8--6/8----------------------|
A----------------------------------|
E----------------------------------|

Thanks
Any corrections - comment 

Suggest correction
Give kudos to tab author, rate the tab!
1 2 3 4 5
comments
print report bad tab
guest
You may want to rate the tab now too:
select rating
Wanna post a correction for this tab? Suggest correction