Oops, an error
Loading. Please wait.

Goodbye Chords

7,528 views 18 this week
no commentswrite comment
1 2 3 4 5
x 16
add to favorites
launch autoscroll
font size
0
reset
transpose
0
reset
simplify chords
display chords
guitar tuner
×
Best way to learn
"Goodbye"
Autoscroll
slow
fast
+/-
esc
set tempo
stop
Author
Capo
  follow
1st fret
Glenn Morrison - Goodbye
Capo 1st 

Intro 
Am        |F           |Gadd9      |Am7        ||x2
----------|------------|-----------|-----------|
----1---1-|------------|----0----0-|----1------|
---2---2--|----2---0-2-|---2----2--|---0---0-2-|
--2---2---|---3---3----|--0----0---|--2---2----|
-0---0----|--3---------|-----------|-0---0-----|
----------|-1----------|-3----3----|-----------|


Verse 1
       Am              F        G          Am
It's enough that I know our time had a home
            Am          F             G            Am
In your heart was a place but the glass always breaks
            Am             F         G
From the start we were brave yet it all seemed amazing


Chorus 
Am    F            C            G
Now I, I wanna know what it took to leave me
Am    F            C               G
Now I, I wanna know how would you fall, how would you
 Am     F                    C             G
Goodbye and it starts to snow in the streets of Mexico
Am     F                C             G
Goodbye, I am left alone in the streets of Mexico


Interlude                       
 Am       |F         |G         |1st Am     ||x2  |2nd Am
----------|----------|----------|----------|      ---------|
-----1----|----------|-----0----|-----1----|      -----1---|
---2--2-2-|-----2----|------0-0-|---2--2-2-|      ---2-----|
--2-2--2--|---3--3-3-|---0---0--|--2-2--2--|      --2-2----|
-0--------|--3-3--3--|--2-2-----|-0--------|      -0-------|
----------|-1--------|-3--------|----------|      ---------|


Verse 2
       Am                   F                          G                Am
Even now (even now) as I lay (as I lay), there's a space you used to take
                 Am                               F            
If I'd have known (if I'd have known) what we made (what we made) 
            G              Am
Would be gone like yesterday
              Am                               F            
I'd have loved (I'd have loved) you with grace (you with grace); 
              G                  Am
I'd have fought the darkness away
            Am                              F         G               Am
All your lies (all your lies) showed my way, now I'm lost between the faces

Chorus
 Am     F                    C             G
Goodbye and it starts to snow in the streets of Mexico
 Am     F               C             G
Goodbye, I am left alone in the streets of Mexico
 Am     F                    C             G
Goodbye and it starts to snow in the streets of Mexico
 Am     F                C             G
Goodbye, I am left alone in the streets of Mexico


Interlude  
 Am     |F         |C       |G         ||x2
--------|-1--0-----|--------|----------|
--------|-------1--|--------|-3--1--0--|
-2------|----------|-0------|----------|
--------|----------|--------|----------|
--------|----------|--------|----------|
--------|----------|--------|----------|


Chorus
 Am     F                    C             G
Goodbye and it starts to snow in the streets of Mexico
 Am      F              C             G
Goodbye, I am left alone in the streets of Mexico
 Am     F                    C             G
Goodbye and it starts to snow in the streets of Mexico
 Am      F              C             G
Goodbye, I am left alone in the streets of Mexico
 Am    F     C      G     
OooohOoooh Goodbye (Bye) 
 Am     F      C             G
Goodbye,(Ooooh) in the streets of Mexico
Suggest correction
comments
print report bad tab
guest
You may want to rate the tab now too:
select rating
Wanna post a correction for this tab? Suggest correction