Oops, an error
Loading. Please wait.

Lando chords

version 2
version 2

Whole song

by Gloc 9
32,641 views 72 this week
4 commentsread comments
1 2 3 4 5
x 5
add to favorites
×
Save as Personal and add changes to this tab that will be seen only by you. Learn more ›
×
You can save this tab as Personal to edit and correct it or add notes. All changes will be seen only by you. Learn more »
launch autoscroll
font size
0
reset
transpose
0
reset
display chords
guitar tuner
edit
Autoscroll
slow
fast
+/-
esc
set tempo
stop
Author
Tabbers playing skills
advanced +
Strumming
There is no strumming pattern for this song yet. and get +5 IQ
Chorus:
Am	C		  G             Am
Wag kang mabahala may nagbabantay sa dilim
Am	C		  G              Am
Nakaabang sa sulok at may hawak na patalim
G	F		  Am
Di ka hahayaan na muli pang masaktan
G	 	E	  Am
Wag ka nang matakot sa dilim

postchorus1
e|-----------------------------------------|
a|-----------------------------------------|
d|-----------------------------------------|
G|-5h7p5-----------------------------------|
B|-------7---7-5-3--------5---3----0-------|
E|-----------------------------------------|

Verse-Am-C-G		
Ito ay kwentong hango na galing sa dalawang taong
Nagmamahalan ng tunay ang ngala’y Elsa at Lando			
At kahit parang pagkakataon ay nakakandado
Dahil magkalayo ang uri ng buhay ang estado				
Ng buhay ni Lando ay di nalalayo sa maraMI
Sinunog ng araw ang kulay ng balat at marami			
Ng galon ng pawis ang kanyang naidilig sa lupa
Upang ang gutom ay di na masuklian pa ng luha			
Habang ang babaeng kanyang minamahal ay sagana	
Ngunit kabilang sa pamilya na di alintanang				
Makipagkapwa-tao sa mga tulad niyang dukha
Gayon pa ma’y patuloy ang pagmamahal na pinula ng pagibig


Chorus:
Am	C		  G             Am
Wag kang mabahala may nagbabantay sa dilim
Am	C		  G              Am
Nakaabang sa sulok at may hawak na patalim
G	F		  Am
Di ka hahayaan na muli pang masaktan
e|-----------------------------------------|
a|-----------------------------------------|
d|-----------------------------------------|
G|-----------------------------------------|
B|-0-----2----3--5----------7~---------0~--|
E|-----------------------------------------|
G	 	E	  Am
Wag ka nang matakot sa dilim

e|-----------------------------------------|
a|--5b-------------------------------------|
d|------7-5-h7p5----5b---------------------|
G|----------------7---------7p5h7b---------|
B|-----------------------------------------|
E|-----------------------------------------|

Verse-Am-C-G

Kahit na ano pang bagay ang pilit na ihadlang
Sino man ay walang makakapigil sa paghakbang
Ng mga paa na ang nais ay marating ang ligaya
Niyayang magtanan di nag-atubili na sumama
Hawak ang pangarap at pangako sa isa’t isa
Nagpakalayo-layo di namuhay na may kaba
Dahil alam nila na sa bawa’t isa’y nakalaan
At ang pagmamahalan tangi nilang sinasandalan
Wala ng ibang bagay pa silang mahihiling
Kundi isang pamilya sa loob ng apat na dingding
At isang bubong na maaaring tawaging tahanan
Bakit may pangit na kabanatang kailangang daanan pa


Chorus:
Am	C		  G             Am
Wag kang mabahala may nagbabantay sa dilim
Am	C		  G              Am
Nakaabang sa sulok at may hawak na patalim
G	F		  Am
Di ka hahayaan na muli pang masaktan
e|-----------------------------------------|
a|-----------------------------------------|
d|-----------------------------------------|
G|-----------------------------------------|
B|-0-----2----3--5----------7~---------0~--|
E|-----------------------------------------|
G	 	E	  Am
Wag ka nang matakot sa dilim

e|-----------------------------------------|
a|--5b-------------------------------------|
d|------7-5-h7p5----5b---------------------|
G|----------------7---------7p5h7b---------|
B|-----------------------------------------|
E|-----------------------------------------|




Verse-Am-C-G

Isang gabi na Huwebes lumubog na ang araw
Doon tayo magkita pasalubong ko’y siopao
Upang ating paghatian pagdating ng hapunan
Meron palang nakaabang sa amin na kamalasan
Eskinita sa Ermita may sumaksak kay Elsa
Sa tagiliran isang makalawang na lanseta
Ang gamit upang makuha lang ang kanyang pitaka
Kami’y mahirap lamang bakit di na siya naawa
Hindi ko naabutang buhay ang aking mahal
At hanggang sa huling hantungan ay nagdarasal
Bakit po bakit po ang laging lumalabas
Sa ‘king bibig palaboy-laboy ni walang landas
Akong sinusunod baliw sa mata ng marami
Siguro nga di ko na kilala aking sarili
Pangala’y taong grasa may patalim na gamit
   E
At ang tanging alam ay isang malungkot na awit
At ang sabi…

Chorus:
Am	C		  G             Am
Wag kang mabahala may nagbabantay sa dilim
Am	C		  G              Am
Nakaabang sa sulok at may hawak na patalim
G	F		  Am
Di ka hahayaan na muli pang masaktan
G	 	E	  Am
Wag ka nang matakot sa dilim


G	E	       Am
Wag ka nang matakot sa dilim…

Suggest correction
Creating personal tab
Creating personal tab
You can edit any tab online and save it as your Personal.

You can edit, replace or remove any tab part or add personal notes – all changes will be seen only by you.

Personal tabs can be accessed anytime from any device, even offline.
Learn more »
comments
print report bad tab
4 comments total. Showing first comments.
0 reply
francis hilera 10 May 22, 2007 03:47 AM

k...

0 reply
paul21 618 Jun 10, 2007 05:46 AM

hehehe!!! lupet!! ur all around sarsa men!! 5shooting stars for yah!!

0 reply
rakiztahlol 10 Mar 10, 2009 01:50 AM

nc1...

3Stars n DSun

Idol gloc9 in the one and only Francis M.

guest
You may want to rate the tab now too:
select rating
Wanna post a correction for this tab? Suggest correction