Oops, an error
Loading. Please wait.

Martilyo Tab

version 2
version 2

Whole song

1,028 views 1 this week
no commentswrite comment
1 2 3 4 5
please rate
add to favorites
launch autoscroll
font size
0
reset
how to read this tab
guitar tuner
Tab Pro tools
  • play this tab
  • loop segment
  • change instrument
  • show fretboard
  • metronome
×
Best way to learn
"Martilyo"
Autoscroll
slow
fast
+/-
esc
set tempo
stop
Contributor
Difficulty
novice
Martilyo by gloc9

Instrument used: Bass guitar, Electric guitar, Keyboard, Drum.
Tabbed by: Christian Bendaña
Email: metallover04@yahoo.com @ facebook...

Intro:

Rhythm guitar (Clean tone):
e-1-1-1-1---|--1-1-1-1----|
b-2-2-2-2---|--2-2-2-2----|
g-3-3-3-3---|--3-3-3-3----|
d-3-3-3-3---|--3-3-3-3----|
a-1-1-1-1---|--1-1-1-1----|
E-----------|-------------|

Rhythm guitar (Clean tone):
e-2-2-2-2---|--4-4-4-4----|
b-2-2-2-2---|--4-4-4-4----|
g-3-3-3-3---|--5-5-5-5----| 2 times
d-4-4-4-4---|--6-6-6-6----|
a-4-4-4-4---|--6-6-6-6----|
E-2-2-2-2---|--4-4-4-4----|



Refrain:

Rhythm guitar (Clean tone):
e-----------|-------------|
b-----------|-------------|
g-----------|-------------|
d-----------|-------------|
a-----------|-------------|
E-----------|-------------|

Rhythm guitar (Clean tone):
e-----------|-------------|
b-----------|-------------|
g-----------|-------------|
d-----------|-------------|
a-----------|-------------|
E-----------|-------------|

Rhythm guitar (Clean tone):
e-----------|-------------|
b-----------|-------------|
g-----------|-------------|
d-----------|-------------|
a-----------|-------------|
E-----------|-------------|

Rhythm guitar (Clean tone):
e-2-2-2-2---|--4-4-4-4----|
b-2-2-2-2---|--4-4-4-4----|
g-3-3-3-3---|--5-5-5-5----|
d-4-4-4-4---|--6-6-6-6----|
a-4-4-4-4---|--6-6-6-6----|
E-2-2-2-2---|--4-4-4-4----|

Chorus 1:

Rhythm guitar (Clean tone):
e-1-1-1-1---|--1-1-1-1----|
b-2-2-2-2---|--2-2-2-2----|
g-3-3-3-3---|--3-3-3-3----|
d-3-3-3-3---|--3-3-3-3----|
a-1-1-1-1---|--1-1-1-1----|
E-----------|-------------|

Lead Guitar (Distortion):
e-----------|-------------|
b-----------|-------------|
g-3~~-------|-------------|
d-3~~-------|-------------|
a-1~~-------|-------------|
E-----------|-------------|

Rhythm guitar (Clean tone):
e-2-2-2-2---|--4-4-4-4----|
b-2-2-2-2---|--4-4-4-4----|
g-3-3-3-3---|--5-5-5-5----| 
d-4-4-4-4---|--6-6-6-6----|
a-4-4-4-4---|--6-6-6-6----|
E-2-2-2-2---|--4-4-4-4----|

Lead Guitar (Distortion):
e-----------|-------------|
b-----------|-------------|
g-----------|-------------|
d-4~~-------|-6~~---------|
a-4~~-------|-6~~---------|
E-2~~-------|-4~~---------|

Rhythm guitar (Clean tone):
e-1-1-1-1---|--1-1-1-1----|
b-2-2-2-2---|--2-2-2-2----|
g-3-3-3-3---|--3-3-3-3----|
d-3-3-3-3---|--3-3-3-3----|
a-1-1-1-1---|--1-1-1-1----|
E-----------|-------------|

Lead Guitar (Distortion):
e-----------|-------------|
b-----------|-------------|
g-3~~-------|-------------|
d-3~~-------|-------------|
a-1~~-------|-------------|
E-----------|-------------|

Rhythm guitar (Clean tone):
e-2-2-2-2---|--4-4-4-4----|
b-2-2-2-2---|--4-4-4-4----|
g-3-3-3-3---|--5-5-5-5----| 
d-4-4-4-4---|--6-6-6-6----|
a-4-4-4-4---|--6-6-6-6----|
E-2-2-2-2---|--4-4-4-4----|

Lead Guitar (Distortion):
e-----------|-------------|
b-----------|-------------|
g-----------|-------------|
d-4~~-------|-6~~---------|
a-4~~-------|-6~~---------|
E-2~~-------|-4~~---------|

Lead Guitar (Distortion):
e-----------|-------------|
b-----------|-------------|
g-3~~-------|-------------|
d-3~~-------|-------------|
a-1~~-------|-------------|
E-----------|-------------|

Lead Guitar (Distortion):
e-----------|-------------|
b-----------|-------------|
g-----------|-------------|
d-4~~-------|-6~~---------|
a-4~~-------|-6~~---------|
E-2~~-------|-4~~---------|

Lead Guitar (Distortion):
e-----------|-------------|
b-----------|-------------|
g-3~~-------|-------------|
d-3~~-------|-------------|
a-1~~-------|-------------|
E-----------|-------------|

Lead Guitar (Distortion):
e-----------|-------------|
b-----------|-------------|
g-----------|-------------|
d-4~~-------|-6~~---------|
a-4~~-------|-6~~---------|
E-2~~-------|-4~~---------|

Verse 1:

Rhythm guitar (Clean tone):
e-1-1-1-1---|--1-1-1-1----|
b-2-2-2-2---|--2-2-2-2----|
g-3-3-3-3---|--3-3-3-3----|
d-3-3-3-3---|--3-3-3-3----|
a-1-1-1-1---|--1-1-1-1----|
E-----------|-------------|

Rhythm guitar (Clean tone):
e-2-2-2-2---|--4-4-4-4----|
b-2-2-2-2---|--4-4-4-4----|
g-3-3-3-3---|--5-5-5-5----| 4 times
d-4-4-4-4---|--6-6-6-6----|
a-4-4-4-4---|--6-6-6-6----|
E-2-2-2-2---|--4-4-4-4----|

Verse 3:

Lead Guitar (Distortion):
e----------------|------------------|
b----------------|------------------|
g----------------|------------------|
d----------------|------------------| 4 times
a---------4-6-4~~|------------4~~---|
E-4-6-4-6--------|-6-4-4-4-6--------|

Lead Guitar (Distortion):
e----------------|-------------|
b----------------|-------------|
g----------------|-------------|
d----------------|-------------| 4 times
a----------------|-------6-6~~-|
E-6-6-6-11b13----|-6-6-6-------|

Rhythm guitar (Clean tone):
e-1-1-1-1---|--1-1-1-1----|
b-2-2-2-2---|--2-2-2-2----|
g-3-3-3-3---|--3-3-3-3----|
d-3-3-3-3---|--3-3-3-3----|
a-1-1-1-1---|--1-1-1-1----|
E-----------|-------------|

Lead Guitar (Distortion):
e--------------|----------------|
b--------------|----------------|
g--------------|----------------|
d--------------|----------------| 
a-------8-8-8~-|-------6-6-6~---|
E-6-6-6--------|-6-6-6----------|

Rhythm guitar (Clean tone):
e-1-1-1-1---|--1-1-1-1----|
b-2-2-2-2---|--2-2-2-2----|
g-3-3-3-3---|--3-3-3-3----|
d-3-3-3-3---|--3-3-3-3----|
a-1-1-1-1---|--1-1-1-1----|
E-----------|-------------|

Lead Guitar (Distortion):
e--------------|----------------|
b--------------|----------------|
g--------------|----------------|
d--------------|----------------|
a-------6-6-6~-|-------6-6-6~~--|
E-6-6-6--------|-6-6-6----------|

Rhythm guitar (Clean tone):
e-2-2-2-2---|-2-2-2-2-----------|
b-2-2-2-2---|-2-2-2-2-----------|
g-3-3-3-3---|-3-3-3-3-----------|
d-4-4-4-4---|-4-4-4-4-----------|
a-4-4-4-4---|-4-4-4-4-----------|
E-2-2-2-2---|-2-2-2-2-----------|

Lead Guitar (Distortion):
e-------------------|----------------|
b-------------------|----------------|
g-------------------|----------------|
d-------------------|----------------|
a-------------------|----------------|
E-2-2-2-2-2-2-2-2---|-2-2-2-2-2-2-2-2|

Rhythm guitar (Clean tone):
e------------------|
b------------------|
g------------------|
d-6-6-6-6----------|
a-6-6-6-6----------|
E-4-4-4-4----------|

Lead Guitar (Distortion):
e-------------------|----------------|
b-------------------|----------------|
g-------------------|----------------|
d-------------------|----------------|
a-------------------|--1-1-1-1-------|
E-4-4-4-4-4-4-4-4---|----------2~----|

Chorus:

Rhythm guitar (Clean tone):
e-1-1---1----|--1-1------|
b-2-2---2----|--2-2------|
g-3-3---3----|--3-3------|
d-3-3---3----|--3-3------|
a-1-1---1----|--1-1------|
E------------|-----------|

Lead Guitar (Distortion):
e-----------|-------------|
b-----------|-------------|
g-----------|-------------|
d-----------|-------------|
a-----------|-------------|
E-----------|-------------|

Rhythm guitar (Clean tone):
e-2-2-2-2---|--4-4-4-4----|
b-2-2-2-2---|--4-4-4-4----|
g-3-3-3-3---|--5-5-5-5----|
d-4-4-4-4---|--6-6-6-6----|
a-4-4-4-4---|--6-6-6-6----|
E-2-2-2-2---|--4-4-4-4----|

Lead Guitar (Distortion):
e-----------|-------------|
b-----------|-------------|
g-----------|-------------|
d-4~~-------|-6~~----------|
a-4~~-------|-6~~----------|
E-2~~-------|-4~~----------|

Rhythm guitar (Clean tone):
e-1-1-1-1---|--1-1-1-1----|
b-2-2-2-2---|--2-2-2-2----|
g-3-3-3-3---|--3-3-3-3----|
d-3-3-3-3---|--3-3-3-3----|
a-1-1-1-1---|--1-1-1-1----|
E-----------|-------------|

Lead Guitar (Distortion):
e-----------|-------------|
b-----------|-------------|
g-----------|-------------|
d-8~~-------|-------------|
a-8~~-------|-------------|
E-6~~-------|-------------|

Rhythm guitar (Clean tone):
e-2-2-2-2---|--4-4-4-4----|
b-2-2-2-2---|--4-4-4-4----|
g-3-3-3-3---|--5-5-5-5----|
d-4-4-4-4---|--6-6-6-6----|
a-4-4-4-4---|--6-6-6-6----|
E-2-2-2-2---|--4-4-4-4----|

Lead Guitar (Distortion):
e-----------|-------------|
b-----------|-------------|
g-----------|-------------|
d-----------|-------------|
a-8~~-------|-------------|
E-----------|-2~~-----------|


Chorus 2:

Rhythm guitar (Clean tone):
          hindi mo .....
e-1-1-1-1---|--1-1-1-1----|
b-2-2-2-2---|--2-2-2-2----|
g-3-3-3-3---|--3-3-3-3----|
d-3-3-3-3---|--3-3-3-3----|
a-1-1-1-1---|--1-1-1-1----|
E-----------|-------------|

Lead Guitar (Distortion):
e-----------|-------------|
b-----------|-------------|
g-----------|-------------|
d-----------|-------------|
a-----------|-------------|
E-----------|-------------|


Rhythm guitar (Clean tone):
e-2-2-2-2---|--4-4-4-4----|
b-2-2-2-2---|--4-4-4-4----|
g-3-3-3-3---|--5-5-5-5----|
d-4-4-4-4---|--6-6-6-6----|
a-4-4-4-4---|--6-6-6-6----|
E-2-2-2-2---|--4-4-4-4----|

Lead Guitar (Distortion):
e------------------|----------------------|
b------------------|----------------------|
g------------------|----------------------|
d---------4-4------|----------6-6---------|
a-----4-4-----4-4--|------6-6-----6-6-----|
E-2-2--------------|--4-4-----------------|


Rhythm guitar (Clean tone):
e-1-1-1-1---|--1-1-1-1----|
b-2-2-2-2---|--2-2-2-2----|
g-3-3-3-3---|--3-3-3-3----|
d-3-3-3-3---|--3-3-3-3----|
a-1-1-1-1---|--1-1-1-1----|
E-----------|-------------|

Lead Guitar (Distortion):
e-----------------|---------------------|
b-----------------|---------------------|
g---------3-3-----|----------3-3--------|
d-----3-3-----3-3-|------3-3-----3-3----|
a-1-1-------------|--1-1----------------|
E-----------------|---------------------|


Rhythm guitar (Clean tone):
e-2-2-2-2---|--4-4-4-4----|
b-2-2-2-2---|--4-4-4-4----|
g-3-3-3-3---|--5-5-5-5----|
d-4-4-4-4---|--6-6-6-6----|
a-4-4-4-4---|--6-6-6-6----|
E-2-2-2-2---|--4-4-4-4----|

Lead Guitar (Distortion):
e------------------|----------------------|
b------------------|----------------------|
g------------------|----------------------|
d---------4-4------|----------6-6---------|
a-----4-4-----4-4--|------6-6-----6-6-----|
E-2-2--------------|--4-4-----------------|

Rhythm guitar (Clean tone):
e------------------|-------------------|
b------------------|-------------------|
g-6-6-6-6-6-6-6-6--|--6-6-6-6-6-6-6-6--|
d-6-6-6-6-6-6-6-6--|--6-6-6-6-6-6-6-6--|
a-4-4-4-4-4-4-4-4--|--4-4-4-4-4-4-4-4--|
E------------------|-------------------|

Lead Guitar (Distortion):
e------------------|---------------------|
b------------------|---------------------|
g---------6-6------|----------6-6--------|
d-----6-6-----6-6--|------6-6-----6-6----|
a-4-4--------------|--4-4----------------|
E------------------|---------------------|

Rhythm guitar (Clean tone):
e------------------|-------------------|
b------------------|-------------------|
g-5-5-5-5-5-5-5-5--|--5-5-5-5-5-5-5-5--|
d-6-6-6-6-6-6-6-6--|--6-6-6-6-6-6-6-6--|
a-3-3-3-3-3-3-3-3--|--3-3-3-3-3-3-3-3--|
E------------------|-------------------|

Lead Guitar (Distortion):
e------------------|--------------------|
b------------------|--------------------|
g---------5-5------|----------5-5-------|
d-----6-6-----6-6--|------6-6-----6-6---|
a-3-3--------------|--3-3---------------|
E------------------|--------------------|

Rhythm guitar (Clean tone):
e------------------|--------------------|
b------------------|--------------------|
g-3-3-3-3-3-3-3-3--|-3-3-3-3-3-3-3-3----|
d-3-3-3-3-3-3-3-3--|-3-3-3-3-3-3-3-3----|
a-1-1-1-1-1-1-1-1--|-1-1-1-1-1-1-1-1-- -|
E------------------|--------------------|

Lead Guitar (Distortion):
e------------------|--------------------|
b------------------|--------------------|
g---------3-3------|----------3-3-------|
d-----3-3-----3-3--|------3-3-----3-3---|
a-1-1--------------|--1-1---------------|
E------------------|--------------------|

Rhythm guitar (Clean tone):
e-------------|-------------|
b-------------|-------------|
g-------------|-------------|
d-4-4---------|-------------|
a-4-4---------|-------------|
E-2-2---------|-------------|

Lead Guitar (Distortion):
e-------------|-------------|
b-------------|-------------|
g-------------|-------------|
d-4-4---------|-------------|
a-4-4---------|-------------|
E-2-2---------|-------------|

Rhythm guitar (Clean tone):
e------------------|-------------|
b------------------|-------------|
g------------------|-------------|
d-6-6--------------|-------------|
a-6-6--------------|-------------|
E-4-4--------------|-------------|

Lead Guitar (Distortion):
e------------------|-------------|
b------------------|-------------|
g------------------|-------------|
d-6-6--------------|-------------|
a-6-6--------------|-------------|
E-4-4--------------|-------------|


Paulit-ulit lang yan basta pakingan nyo na lang kung saan naulit...
comments
We did not receive enough feedback on this tab! Please rate:
print report bad tab
1 2 3 4 5
I want to post or [tab]
guest
You may want to rate the tab now too:
select rating
Please do not post tabs as comments. Select "correction" instead!