Oops, an error
Loading. Please wait.

Anniversary Song Tab

40 views 9 this week
no commentswrite comment
1 2 3 4 5
2 more votes to show rating
add to favorites
launch autoscroll
font size
0
reset
how to read this tab
guitar tuner
Autoscroll
slow
fast
+/-
esc
set tempo
stop
Help us to improve Ultimate-Guitar.com Take our survey!
×
Author
Tabbers playing skills
advanced ++
Figure it's worth submitting the intro alone since it's repeated through a good portion of the song. 
I'm 90% sure I've got this right, but if you've got a correction, please do let me know.


Tuning :DAEAC#E


Right Guitar
 E|----------------------------------0------------0-----------------0--|
C#|--3---0---------------------0h3h5---3p0--------0--------------------|
 A|--2---0----2---0--4---------------------0----------------0----------|
 E|-----------0---0--0----------------------------------------0h5h7----|
 A|---------------------------------------------------0h7h9------------|
 D|-------------------------5---------------5/9------------------------|


Left Guitar
 E|--2h4p2p0h2p0-----5----------------------------------------------0--|
C#|--------------0-----3---3/2h0--------12p0----------------------0----|
 A|------------------------0----h4-----------0--------0-h/4---0-2------|
 E|---------------------------------------------0h/4-------------------|
 A|--------------------------------------------------------------------|
 D|--------------------------------------------------------------------|



************************************
| h   Hammer-on
| p   Pull-off
| /   Slide
************************************
Suggest correction
Give kudos to tab author, rate the tab!
1 2 3 4 5
comments
print report bad tab
guest
You may want to rate the tab now too:
select rating
Wanna post a correction for this tab? Suggest correction