Oops, an error
Loading. Please wait.

Hoy Tab

363 views 6 this week
no commentswrite comment
1 2 3 4 5
3 more votes to show rating
add to favorites
launch autoscroll
font size
0
reset
how to read this tab
guitar tuner
×
Best way to learn
"Hoy"
Autoscroll
slow
fast
+/-
esc
set tempo
stop
he mirado todas las transcripciones y aunque esten correctas, faltaba el
arpegio de la intro y las estrofas, yo lo he sacado bastante aproximados,
espero que os guste º_^

acordes:

Emadd2 022002
Em     022000
D      XX0232
C      X32010
G      320033
B7     X21202

CEJILLA 4

  Emadd2
e|-------2-0-------|-------2-0---0---|-------2-0-------|-------2-0---0---|
B|----------0------|----------0------|----------0------|----------0------|
G|----0--------0---|----0-------0----|----0--------0---|----0-------0----|
D|---2--2-----2--4-|---2--2----------|---2--2-----2--4-|---2--2----------|
A|-----------------|-----------------|-----------------|-----------------|
E|-0---------------|-0---------------|-0---------------|-0---------------|

  Em                D                 C        D        G
e|-------0-0-------|-5--------0h2-0--|----0-------2----|----3------------|
B|------------0----|-------3-------3-|------1-------3--|------3----------|
G|----0------0---0-|-----2---2-------|-------0---2---2-|-------0---------|
D|---2--2-------2--|-0---------------|---2-----0-------|---0-------0---0-|
A|-----------------|-----------------|-3---------------|----------2---2--|
E|-0---------------|-----------------|-----------------|-3------3---2----|
Tengo marcado en el pecho
todos los días que el tiempo
no me dejó estar aquí.

  Em                D                 C        B7       Em
e|-------0-0-------|-5--------0h2-0--|----0------------|----------0------|
B|------------0----|-------3-------3-|------1-----0----|----0--------0---|
G|----0------0---0-|-----2---2-------|-------0-------2-|-------0---------|
D|---2--2-------2--|-0---------------|---2-------------|---------2-------|
A|-----------------|-----------------|-3-------2-------|-----------------|
E|-0---------------|-----------------|-----------------|-0---------------|
Tengo una fe que madura
que va conmigo y me cura
desde que te conocí.

  Em                D                 C        D        G
e|-------0-0-------|-5--------0h2-0--|----0-------2----|----3------------|
B|------------0----|-------3-------3-|------1-------3--|------3----------|
G|----0------0---0-|-----2---2-------|-------0---2---2-|-------0---------|
D|---2--2-------2--|-0---------------|---2-----0-------|---0-------0---0-|
A|-----------------|-----------------|-3---------------|----------2---2--|
E|-0---------------|-----------------|-----------------|-3------3---2----|
Tengo una huella perdida
entre tu sombra y la mía
que no me deja mentir.

  Em                D                 C        B7       Em
e|-------0-0-------|-5--------0h2-0--|----0------------|----------0------|
B|------------0----|-------3-------3-|------1-----0----|----0--------0---|
G|----0------0---0-|-----2---2-------|-------0-------2-|-------0---------|
D|---2--2-------2--|-0---------------|---2-------------|---------2-------|
A|-----------------|-----------------|-3-------2-------|-----------------|
E|-0---------------|-----------------|-----------------|-0---------------|
Soy una moneda en la fuente,
tú mi deseo pendiente,
mis ganas de revivir.

C                    D
Tengo una mañana constante
                   G
y una acuarela esperando
                  Em
verte pintado de azul.

C                  D
Tengo tu amor y tu suerte,
                  G
y un caminito empinado.
                      B7
Tengo el mar del otro lado,
                      Em
tú eres mi norte y mi sur.

                   C
Hoy voy a verte de nuevo,
           D           Em
voy a envolverme en tu ropa.
       G          D
Susúrrame en tu silencio
          B7      Em
cuando me veas llegar.

                   C
Hoy voy a verte de nuevo,
         D           Em
voy a alegrar tu tristeza.
          G       D
Vamos a hacer una fiesta
              B7         Em
pa' que este amor crezca más.

  Emadd2
e|-------2-0-------|-------2-0---0---|-------2-0-------|-------2-0---0---|
B|----------0------|----------0------|----------0------|----------0------|
G|----0--------0---|----0-------0----|----0--------0---|----0-------0----|
D|---2--2-----2--4-|---2--2----------|---2--2-----2--4-|---2--2----------|
A|-----------------|-----------------|-----------------|-----------------|
E|-0---------------|-0---------------|-0---------------|-0---------------|

  Em                D                 C        D        G
e|-------0-0-------|-5--------0h2-0--|----0-------2----|----3------------|
B|------------0----|-------3-------3-|------1-------3--|------3----------|
G|----0------0---0-|-----2---2-------|-------0---2---2-|-------0---------|
D|---2--2-------2--|-0---------------|---2-----0-------|---0-------0---0-|
A|-----------------|-----------------|-3---------------|----------2---2--|
E|-0---------------|-----------------|-----------------|-3------3---2----|
Tengo una frase colgada
entre mi boca y mi almohada
que me desnuda ante ti.

  Em                D                 C        B7       Em
e|-------0-0-------|-5--------0h2-0--|----0------------|----------0------|
B|------------0----|-------3-------3-|------1-----0----|----0--------0---|
G|----0------0---0-|-----2---2-------|-------0-------2-|-------0---------|
D|---2--2-------2--|-0---------------|---2-------------|---------2-------|
A|-----------------|-----------------|-3-------2-------|-----------------|
E|-0---------------|-----------------|-----------------|-0---------------|
Tengo una playa y un pueblo
que me acompañan de noche
cuando no estás junto a mi.

C                    D
Tengo una mañana constante
                   G
y una acuarela esperando
                  Em
verte pintado de azul.

C                  D
Tengo tu amor y tu suerte,
                  G
y un caminito empinado.
                      B7
Tengo el mar del otro lado,
                      Em
tú eres mi norte y mi sur.

                   C
Hoy voy a verte de nuevo,
           D           Em
voy a envolverme en tu ropa.
       G          D
Susúrrame en tu silencio
          B7      Em
cuando me veas llegar.

                   C
Hoy voy a verte de nuevo,
         D           Em
voy a alegrar tu tristeza.
          G       D
Vamos a hacer una fiesta
              B7         Em
pa' que este amor crezca más.

                   C
Hoy voy a verte de nuevo,
           D           Em
voy a envolverme en tu ropa.
       G          D
Susúrrame en tu silencio
          B7      Em
cuando me veas llegar.

                   C
Hoy voy a verte de nuevo,
         D           Em
voy a alegrar tu tristeza.
          G       D
Vamos a hacer una fiesta
              B7         Em
pa' que este amor crezca más.

  Emadd2
e|-------2-0-------|-------2-0---0---|-------2-0-------|-------2-0---0---|
B|----------0------|----------0------|----------0------|----------0------|
G|----0--------0---|----0-------0----|----0--------0---|----0-------0----|
D|---2--2-----2--4-|---2--2----------|---2--2-----2--4-|---2--2----------|
A|-----------------|-----------------|-----------------|-----------------|
E|-0---------------|-0---------------|-0---------------|-0---------------|
Suggest correction
Give kudos to tab author, rate the tab!
1 2 3 4 5
comments
print report bad tab
guest
You may want to rate the tab now too:
select rating
Wanna post a correction for this tab? Suggest correction