Oops, an error
Loading. Please wait.

Mi Tierra Bass

version 1
version 1

Whole song

96 views 1 this week
no commentswrite comment
1 2 3 4 5
3 more votes to show rating
add to favorites
launch autoscroll
font size
0
reset
guitar tuner
×
Best way to learn
"Mi Tierra"
Autoscroll
slow
fast
+/-
esc
set tempo
stop
Que tal raza pues aqui subiendo mi transcricpción para el bajo
de esta rolita que esta bien chida y sabrosonaun saludo a toda la
banda que gusta de la buena música como esta. Un saludo al buen Tío
que ayudo en gran medida a que sliera.

Bueno jóvenes manos a la obra la rola esta en D y es muy
quisquillosa asi que agudicen el oido ahi esta la clave

Inicio (0:20)
  D
G|------------|
D|--5-0-3-0-5-|
A|------------|
E|------------|

Pre-coro 1 (0:40)
  C            D            Eb
G|------------|------------|------------|-------|
D|------------|------------|------------|-------|
A|--3---3---3-|--5---5---5-|--6---6---6-|-3-5-6-|
E|----3---3---|----5---5---|----6---6---|-------|

Coro 1 (0:50)
  F                    G                     F                  G
G|--------------------|--------------------|-------------------|---------|
D|-3---3-----3---3----|-5---5-----5---5----|-3---3-----3---3---|-3-5-5~~~|
A|---3---3-6---3---3-6|---5---5-8---5---5-8|---3---3-6---3---3-|---------|
E|--------------------|--------------------|-------------------|---------|

Inicio (1:05) Solo de guitarra y sigue igual cuando entra verso de nuevo.
  D              D
G|-----|        |-----------|
D|-----|        |-5-0-3-0-5-|
A|-55--|        |-----------|
E|-----|        |-----------|

Pre-coro 1 (1:45) pequeño cambio en Eb
  C             D            Eb
G|------------|------------|----------8-|-------|
D|------------|------------|--------8---|-------|
A|--3---3---3-|--5---5---5-|--6---6-----|-3-5-6-|
E|----3---3---|----5---5---|----6-------|-------|

Coro 1 (1:55) Con variación en el segundo G
   G                                             (2:11) (2:22)
G|---5------3---7-5-3---|                        |-----|------|
D|-5---5--5---5-------5-|(para el inter)--->     |-567-|---55-|
A|----------------------|                        |-----|-5----|
E|----------------------|                        |-----|------|

Coro 2 (Después del solo de piano) (2:32) así se queda un buen rato
  D
G|--------------|
D|-5--7--7--5---|
A|---5--5--5--5-|
E|--------------|

Figura 1 después de "..y no buscar explicaciones" (3:00)
Y regresa a Coro 2
  D           |   "Figura"  |
G|------------|-------------|
D|-5--7--7--5-|-3-1-0-------|
A|---5--5--5--|-------3-1---|
E|------------|-----------3-|

Solo de Bajo (3:17)
G|---------------------------------------------|
D|------------4-5------------------------------|
A|-3-1-0?-6-5-----3-5-----3-5----5-3-------6-5-|
E|--------------------6-5-----5-3----6-3-5-----|

G|--------------------------------------------------------------------|
D|-4-5--------------------5/7h97-----4-5----------------------------5-|
A|-----3-5-----3-5----5-3--------6-5------3-5-----3-55-0--3-0-1---5---|
E|---------6-5-----5-3------------------------6-5---------------3-----|

Coro 2 (3:42)

Figura 2 (4:07) (parada y pequeño descanso)
G|---5-------|
D|-7---7-8-5-|
A|-----------|
E|-----------|

Figura 3 (4:12) en seguida Figura 1
G|---------3-------|
D|-0-1-3-5---0h1-0-|
A|-----------------|
E|-----------------|

Coro 2 (4:17)

Figura 1 En la cuarta vuelta (4:31)

Final en la octava vuelta (4:48)
G|-------------17-15-------------------|
D|-------1-0--------17-15------------5-|
A|-3-1-0-----------------18-17-----5---|
E|-------------------------------------|


Es todo raza es muy importante que la escuchen varias veces porque si no
no sale, jaja ah y recuerden que el bajo es la base en esta rola.
Cualquier duda o aclaración aqui está el mail potetkd@
sale pues nos vemos.
Suggest correction
Give kudos to tab author, rate the tab!
1 2 3 4 5
comments
print report bad tab
guest
You may want to rate the tab now too:
select rating
Wanna post a correction for this tab? Suggest correction