Oops, an error
Loading. Please wait.

Mi Tierra Bass

version 2
version 2

Whole song

173 views 1 this week
no commentswrite comment
1 2 3 4 5
3 more votes to show rating
add to favorites
launch autoscroll
font size
0
reset
guitar tuner
×
Best way to learn
"Mi Tierra"
Autoscroll
slow
fast
+/-
esc
set tempo
stop
afinacion: E A D G
Tiempo: 2/4


 |       |        |       |        |       |        |       |
|----------------|----------------|----------------|----------------|
|----------------|  ocho barras de intro sin bajo  |----------------|
|----------------|----------------|----------------|----------------|
|----------------|----------------|----------------|----------------|

 |       |        | + ocho barras de intro con bajo |       |
|------------6---|----------------|------------6---|----------------|
|------6-6-------|------6-6-------|------6-6-------|------6-6-------|
|4---------------|------------4---|----------------|------------4---|
|----------------|----------------|----------------|----------------|

 |       |        |       |        |       |        |       |
|------------6---|----------------|------------6---|----------------|
|------6-6-------|------6-6-------|------6-6-------|------7-6-------|
|----------------|------------4---|----------------|------------4---|
|----------------|----------------|----------------|----------------|

 De mi tierra bella...    |        de mi tierra santa...    |
|----------------|----------------|----------------|----------------|
|----------------|----------------|----------------|----------------|
|----------------|--------2---4---|----------------|--------2---4---|
|----------------|------4---------|----------------|------4---------|

 oigo esa|        grito de|los tambores    |        |       |
|----------------|----------------|----------------|----------------|
|------6---------|------6---------|------6---------|------6---------|
|------------4---|------------4---|------------4---|------------6---|
|----------------|----------------|----------------|----------------|

 |       |        Y esa pregón     |       |        |       |
|----------------|----------------|----------------|------6---------|
|------6---------|------6---------|4-----------4---|----------------|
|------------6---|------------6---|------4---------|4-----------4---|
|----------------|----------------|----------------|----------------|

 |       |        |       |        |       |        Una     |
|------------6---|----------------|----------------|------------6---|
|------6---------|------6---------|6-----6---------|------6---------|
|----------------|------------6---|------------4---|----------------|
|----------------|----------------|----------------|----------------|

 canción que vive entonando        |       |        |       |
|----------------|------6---9-----|----------------|----------------|
|4-----4---------|------------6---|------------6---|------6---------|
|------------4---|----------------|------6---------|------------4---|
|----------------|----------------|----------------|----------------|

 |       |        |       |        |       |        |       La
|----------------|----------------|--------2-4---6-|--4-------------|
|------6---------|------6---------|------3---------|------6-7---4---|
|------------4---|------------4---|----------------|----------------|
|----------------|----------------|----------------|----------------|

 tierra te duele  |       La       tierra te da     |       |
|------------6---|------------6---|------8-8-------|------8-8-------|
|------6-6-------|------6-6-------|6-----------6---|------------6---|
|4---------------|----------------|----------------|----------------|
|----------------|----------------|----------------|----------------|

 |       |        |       |        |       |        |       La
|------6-6-------|------8-8-------|------8-8-------|------------6---|
|4-----------4---|------------6---|------------6---|------6-6-------|
|----------------|----------------|----------------|4---------------|
|----------------|----------------|----------------|----------------|

 tierra te empuja |       de       raíz y cal       |       |
|------------6---|------------6---|------8-8-------|------8-8-------|
|------6-6-------|------6-6-------|6-----------6---|------------6---|
|----------------|----------------|----------------|----------------|
|----------------|----------------|----------------|----------------|

 |       |        |       |        |       |        |       La
|------6-6-------|------8-8-------|------8-8-------|------------6---|
|4-----------4---|6-----------6---|------------6---|------6-6-------|
|----------------|----------------|----------------|4---------------|
|----------------|----------------|----------------|----------------|

 tierra donde naciste     |        |       |        |       |
|------------6---|----6-------6---|----------------|----------------|
|------6---------|------6---------|6-----------6---|------------6---|
|4---------------|----------------|------6---------|------6---------|
|----------------|----------------|----------------|----------------|

 |       |        |       |        |       |        |       La
|----------------|----------------|----------------|----------------|
|4-----4-----6---|------6---------|6-----6---------|----------------|
|----------------|------------6---|------------4---|4---------------|
|----------------|----------------|----------------|----------------|

 tierra te duele  |       La       tierra te da     |       |
|------------6---|------------6---|----------------|----------------|
|------6---------|------6---------|6-----------6---|------------6---|
|4---------------|----------------|------6---------|------6---------|
|----------------|----------------|----------------|----------------|

 |       |        |       |        |       |        |       |
|----------------|----------------|----------------|----------------|
|4-----4-----6---|------------6---|------------6---|------6---------|
|----------------|------6---------|------6---------|----------7-----|
|----------------|----------------|----------------|----------------|

 Siguen los pregones      |        la melancolía    |       |
|----------------|----------------|----------------|----------------|
|----------------|----------------|----------------|----------------|
|----------------|--------2---4---|----------------|--------2---4---|
|----------------|------4---------|----------------|------4---------|

y sigue...
Suggest correction
Give kudos to tab author, rate the tab!
1 2 3 4 5
comments
print report bad tab
guest
You may want to rate the tab now too:
select rating
Wanna post a correction for this tab? Suggest correction