Oops, an error
Loading. Please wait.

No Pretendo Tab

92 views 3 this week
no commentswrite comment
1 2 3 4 5
3 more votes to show rating
add to favorites
launch autoscroll
font size
0
reset
how to read this tab
guitar tuner
×
Best way to learn
"No Pretendo"
Autoscroll
slow
fast
+/-
esc
set tempo
stop
intro:

en la grabacion esta melodia tiene dos guitarras, puse las dos juntas, 
se pueden tocar sin problemas, los acordes son arpegios que toca una tercer guitarra

   Am                                 Dm            G#m/5                        
E||---------------------------------------------------5--7----8--7--5--4--------|
B||--3/5---------------------------8--6--------------------------------------5--|
G||-----------4--5---------4--5---------------4--5------------------------7-----|
D||--------7------------7------------------7------------------------------------|
A||-----------------------------------------------------------------------------|
E||-----------------------------------------------------------------------------|
                    Am                  G#m/5       Am                                
-----------------------------------------------------------------------|
--6---------------------------------------------------3/5--------------|
-------5--7--5--4------------------------5-----7---------------4--5----|
---------------------7-----6-----9--------------------------7----------|
------------------------7-----7-----7-------7--------------------------|
-----------------------------------------------------------------------|
                  Dm                            G#m/5               E               
--------------------------------10--8----7-----------------------5--4--||
-------------8--6---------------------------10--9--7-----5----6--------||
-----4--5---------------4--5--------------------------7----------------||
--7------------------7-------------------------------------------------||
-----------------------------------------------------------------------||
-----------------------------------------------------------------------||

melodia de la voz:

no pretendo ser...
--0--0--0--------------------------------------------------------0--1--1--0--|
-----------3--3--1--1--1-------0--1--3--1--0--1--1------0--1--3--------------|
----------------------------2------------------------2-----------------------|
-----------------------------------------------------------------------------|
-----------------------------------------------------------------------------|
-----------------------------------------------------------------------------|
                         
--0--------------0--0--||
-----3--3--1--3--------||
-----------------------|| 
-----------------------|| X2
-----------------------||
-----------------------||

solo quiero ser...
--------0--1--3--3--3--1---1--0--0---------------------------0--1--1--0--0--|
--1--3------------------------------3--3--1--1------0--1--3-----------------|
------------------------------------------------2---------------------------|
----------------------------------------------------------------------------|
----------------------------------------------------------------------------|
----------------------------------------------------------------------------|
                                                                               
--------------0--0--|---------0--1--3--3--3--1---1--0--0-----------------|
--3--3--1--3--------|---1--3------------------------------3--3--1--1-----|
--------------------|-------------------------------------------------2--|
--------------------|----------------------------------------------------|
--------------------|----------------------------------------------------|
--------------------|----------------------------------------------------|
                                                      
-----------0--1--1--0--0---------------------0----||
--0--1--3------------------3--3--1--3--1--3-------||
--------------------------------------------------||
--------------------------------------------------||
--------------------------------------------------||
--------------------------------------------------||

simplemente...
--0--0--0--------------1--1--0--------------0--5--5--3--1--1--3--1-----0--|
-----------3--3--1--1-----------3--3--1--3--------------------------3-----|
--------------------------------------------------------------------------|
--------------------------------------------------------------------------|
--------------------------------------------------------------------------|
--------------------------------------------------------------------------|
                      
--1--0--1--3--1--0--||
--------------------||
--------------------||
--------------------||
--------------------||
--------------------||


he aqui los acordes y la letra que muchos me han pedido, los acordes estan en una 

version muy simple, pero suena bien si le agarras el ritmo.


acordes:

                    Am
No pretendo ser la gota

                  F
que derrame tu silencio,

                    E
ni pretendo ser la nota

                      Am
que se escape en tu lamento.

No pretendo ser la huella
que se deja en tu camino,
ni pretendo ser aquella
que se cruza en tu destino.

                 Am
Sólo quiero descubrirme

                     F
tras la luz de tu sonrisa

                    E
ser el bálsamo que alivia

                    Am
tus tristezas en la vida.

Sólo quiero ser la calma
que se escurre en tus desvelos,
ser el sueño en que descansa
la razón de tus anhelos.

Am                  F
Simplemente, es el amor

E                      Am
cuando ha roto sus cadenas.

F
Para darte el corazón,

                E
No pretendo ser tu dueña.

No pretendo ser la llama
donde enciendes tus pasiones,
ni pretendo ser la espada
que atraviese tus errores.

No pretendo ser el aire
que respiras en la noche,
ni pretendo ser la carne
que destila tus derroches.

Sólo quiero ser la mano
que se llene de quebranto,
ser un poco ese remanso
donde muere el desengaño.

Sólo quiero ser la estrella
que se engarza en tu mirada,
la caricia que se entrega
sin razón y sin palabras.

Simplemente, es el amor
que ha encontrado su camino.
Para darte mi ilusión,
no pretendo hacerte mío.

Simplemente, es el amor
cuando ha roto sus cadenas.
Para darte el corazón,
No pretendo ser tu dueña.

Sólo quiero ser la mano
que se llene de quebranto,
ser un poco ese remanso
donde muere el desengaño.

Sólo quiero ser la estrella
que se engarza en tu mirada,
la caricia que se entrega
sin razón y sin palabras.

Simplemente, es el amor
que ha encontrado su camino.
Para darte mi ilusión,
no pretendo hacerte mío.

Simplemente, es el amor
cuando ha roto sus cadenas.
Para darte el corazón,
No pretendo ser tu dueña.
Simplemente es el amor...

cualquier cosa escriban
Suggest correction
Give kudos to tab author, rate the tab!
1 2 3 4 5
comments
print report bad tab
guest
You may want to rate the tab now too:
select rating
Wanna post a correction for this tab? Suggest correction