Oops, an error
Loading. Please wait.

I Will Survive bass

version 2
version 2

Whole song

Interactive

4,795 views 18 this week
no commentswrite comment
1 2 3 4 5
x 6
add to favorites
×
Save as Personal and add changes to this tab that will be seen only by you. Learn more ›
×
You can save this tab as Personal to edit and correct it or add notes. All changes will be seen only by you. Learn more »
launch autoscroll
font size
0
reset
guitar tuner
edit
Autoscroll
slow
fast
+/-
esc
set tempo
stop
Author
0:06
G|-----------------------------------------------------------------|
D|-----------------------------------------------------------------|
A|-----------------------------------------------------------------|
E|-5-----------/---10--------------3-----------/---8---------------|
   1 + 2 + 3 + 4 + 1 + 2 + 3 + 4 + 1 + 2 + 3 + 4 + 1 + 2 + 3 + 4 +

G|-----------------------------------------------------------------|
D|-----------------------------------------------------------------|
A|-----------------------------------------------3/7-------------7-|
E|-1-----------/---7---------------0-------------------------------|
   1 + 2 + 3 + 4 + 1 + 2 + 3 + 4 + 1 + 2 + 3 + 4 + 1 + 2 + 3 + 4 +

0:22
G|--------------------7-------------------------------5-------------|
D|o---7-------------------------2-3-5---------------------------0-2-|
A|o-------------2-3-5-----5-5-------------------0-2-3-----3-3-------|
E|--5-----5-5-------------------------3---3-3-----------------------|
    1 + 2 + 3 + 4 + 1 + 2 + 3 + 4 + 1 + 2 + 3 + 4 + 1 + 2 + 3 + 4 +

G|-------------------4----------------------------------------------|
D|-3---------------------------0-1-2-----------0-1-2---------------o|
A|---------------0-2-----2-2---------------------------------------o|
E|---1---1-1---4---------------------0---0-0---------0---0-3-3-4-4--|
   1 + 2 + 3 + 4 + 1 + 2 + 3 + 4 + 1 + 2 + 3 + 4 + 1 + 2 + 3 + 4 +

0:55
G|-------------------7---7---------------------------5-------------|
D|---7------------------------02-3-5-----5-----------------------2-|
A|------------02-3-5-------5---------------------2-3-----3-3--03---|
E|-5-----5-5-------------------------------3--232------------------|
   1 + 2 + 3 + 4 + 1 + 2 + 3 + 4 + 1 + 2 + 3 + 4 + 1 + 2 + 3 + 4 +

1:04
G|-------------------4---4-----------------------------------------|
D|-3-3-3-------------------------1-2-2---2-----0-1-2-2---2---------|
A|-------3---------2-------2--02-----------------------------------|
E|--------31--01-4-------------------------0---------------3---4---|
   1 + 2 + 3 + 4 + 1 + 2 + 3 + 4 + 1 + 2 + 3 + 4 + 1 + 2 + 3 + 4 +

1:11
G|-----------------------7-----------------------------------------|
D|-------7----------------70--02-3-5-5--5----------------------0-2-|
A|-0------70--02-3-5---------------------50----0-2-3-3--3--3--3----|
E|-----------------------------------------3-----------------------|
   1 + 2 + 3 + 4 + 1 + 2 + 3 + 4 + 1 + 2 + 3 + 4 + 1 + 2 + 3 + 4 +

G|----------------------4------------------------------------------|
D|-3-3--3----------------40----0-1-2-2--2--2--22-2-------2-2-------|
A|-------------0-1-2-2-----2--2------------------------------------|
E|---------1--1------------------------------------0-0---------4---|
   1 + 2 + 3 + 4 + 1 + 2 + 3 + 4 + 1 + 2 + 3 + 4 + 1 + 2 + 3 + 4 +

1:29
G|----------------------7-------------------------------5----------|
D|------7-------------------------------5----------------------0-2-|
A|-0-0-----0---2-3-5-5-----5--00---------------0-2-3-3-----3--3----|
E|-------------------------------4-3-3-----3-----------------------|
   1 + 2 + 3 + 4 + 1 + 2 + 3 + 4 + 1 + 2 + 3 + 4 + 1 + 2 + 3 + 4 +

G|----------------------4------------------------------------------|
D|-3-3-------------------40----0-1-2-2--2--2--2--------------------|
A|------3------0-1-2-2-----2--2----------------2-------------------|
E|---------1-------------------------------------3-0-0-0-0-3-3-4-4-|
   1 + 2 + 3 + 4 + 1 + 2 + 3 + 4 + 1 + 2 + 3 + 4 + 1 + 2 + 3 + 4 +

1:45
G|-----------------------7------------------------------5----------|
D|-------7----------------70--02-3-5-5--5-----------------5----0-2-|
A|-0-0----70--02-3-5---------------------------0-2-3-3-----3-3-----|
E|-----------------------------------------3--3--------------------|
   1 + 2 + 3 + 4 + 1 + 2 + 3 + 4 + 1 + 2 + 3 + 4 + 1 + 2 + 3 + 4 +

G|----------------------4------------------------------------------|
D|-3-3--3----------------------0-1-2-2--0------2-------2-0---------|
A|-------------0-1-2-2-----2--2-----------2---------------2--------|
E|---------1-1-----------------------------0-------0-0-----0---4-4-|
   1 + 2 + 3 + 4 + 1 + 2 + 3 + 4 + 1 + 2 + 3 + 4 + 1 + 2 + 3 + 4 +

2:01
G|----------------------7------------------------------------------------5---------|
D|------7----------------750--02-3-5---5---50--50------------------------------0-2-|
A|-0-0----70---2-3-5-5-----------------------2---20----------------3-3-----3-------|
E|-------------------------------------------------3-------------------------------|
   1 + 2 + 3 + 4 + 1 + 2 + 3 + 4 + 1 e + a 2 e + a 3 e + a 4 e + a 1 + 2 + 3 + 4 +

G|----------------------4----------------------4-/-9-9-9-----------|
D|-3-3--3----------------40----0-1-2-2--2-22-2----------97---------|
A|-------------0-1-2-2-----2--2---------------------------97-------|
E|---------1--1------------------------------------------------4---|
   1 + 2 + 3 + 4 + 1 + 2 + 3 + 4 + 1 + 2 + 3 + 4 + 1 + 2 + 3 + 4 +

2:18
G|-----------------------------------------------------9-----------|
D|------7------------------0-0-2-3-5-5--5----------------97----0-02|
A|-0------70---2-3-5-5--553--------------------0-2-3-------3-3-----|
E|-----------------------------------------3-----------------------|
   1 + 2 + 3 + 4 + 1 + 2 + 3 + 4 + 1 + 2 + 3 + 4 + 1 + 2 + 3 + 4 +

G|-----------------------4----------------------------------------|
D|-3----3-----------------4----0-1-2-2--2-22-2-20-----------------|
A|-------------0-1-2-2-----2--2------------------2----------------|
E|---------1---------------------------------------0--------------|
   1 + 2 + 3 + 4 + 1 + 2 + 3 + 4 + 1 + 2 + 3 + 4 + 1 + 2 + 3 + 4 +

rest

2:38
G|-----------------------7------------------------------5----------|
D|---7---------------------0--02-3-5-5-------------------------0-2-|
A|-0-----0-0---2-3-5--5-----------------5------0-2-3-------3-------|
E|-----------------------------------------3-----------------------|
   1 + 2 + 3 + 4 + 1 + 2 + 3 + 4 + 1 + 2 + 3 + 4 + 1 + 2 + 3 + 4 +

G|----------------------4------------------------------------------|
D|-3-3--3-----------------4----0-1-2-2--2--------0-2---------------|
A|-------------0-1-2-2-----2-------------------2-------------------|
E|---------1-------------------------------0---------0---0-3-3-4-4-|
   1 + 2 + 3 + 4 + 1 + 2 + 3 + 4 + 1 + 2 + 3 + 4 + 1 + 2 + 3 + 4 +

2:55
G|----------------------7--------------------------------------------5---------|
D|-------7-----------------0---2-3-5---5---50--50---------------------5----0-2-|
A|-0-0----70--02-3-5-5-----------------------2---20------------3-3-----3--3----|
E|-------------------------------------------------3---------------------------|
   1 + 2 + 3 + 4 + 1 + 2 + 3 + 4 + 1 e + a 2 e + a 3 e + a 4 + 1 + 2 + 3 + 4 +

G|-----------------------4---4-4-----------------------------------|
D|-3-3--3-----------------4-----40-------2-2-2-0--------2-0--------|
A|-------------0-1-2-2-----2---------------------2-----------------|
E|---------1--1--------------------0----0-0--------0-0-----0-0-4-4-|
   1 + 2 + 3 + 4 + 1 + 2 + 3 + 4 + 1 + 2 + 3 + 4 + 1 + 2 + 3 + 4 +
Tabbed by Dave Vucko - Converted to minimize scrolling

0:06
G|-----------------------------------------------------------------|
D|-----------------------------------------------------------------|
A|-----------------------------------------------------------------|
E|-5-----------/---10--------------3-----------/---8---------------|
   1 + 2 + 3 + 4 + 1 + 2 + 3 + 4 + 1 + 2 + 3 + 4 + 1 + 2 + 3 + 4 +

G|-----------------------------------------------------------------|
D|-----------------------------------------------------------------|
A|-----------------------------------------------3/7-------------7-|
E|-1-----------/---7---------------0-------------------------------|
   1 + 2 + 3 + 4 + 1 + 2 + 3 + 4 + 1 + 2 + 3 + 4 + 1 + 2 + 3 + 4 +

0:22
G|--------------------7-------------------------------5-------------|
D|o---7-------------------------2-3-5---------------------------0-2-|
A|o-------------2-3-5-----5-5-------------------0-2-3-----3-3-------|
E|--5-----5-5-------------------------3---3-3-----------------------|
    1 + 2 + 3 + 4 + 1 + 2 + 3 + 4 + 1 + 2 + 3 + 4 + 1 + 2 + 3 + 4 +

G|-------------------4----------------------------------------------|
D|-3---------------------------0-1-2-----------0-1-2---------------o|
A|---------------0-2-----2-2---------------------------------------o|
E|---1---1-1---4---------------------0---0-0---------0---0-3-3-4-4--|
   1 + 2 + 3 + 4 + 1 + 2 + 3 + 4 + 1 + 2 + 3 + 4 + 1 + 2 + 3 + 4 +

0:55
G|-------------------------------------7-------7-------------------|
D|-----7-------------------------------------------------0-2---3---|
A|-----------------------0-2---3---5---------------5---------------|
E|-5-----------5---5-----------------------------------------------|
   1 e + a 2 e + a 3 e + a 4 e + a 1 e + a 2 e + a 3 e + a 4 e + a 

G|-------------------------------------5---------------------------|
D|-5-----------5-----------------------------------------------2---|
A|-----------------------------2---3-----------3---3-----0-3-------|
E|-----------------3-----2-3-2-------------------------------------|
   1 e + a 2 e + a 3 e + a 4 e + a 1 e + a 2 e + a 3 e + a 4 e + a 

1:04
G|-------------------------------------4-------4-------------------|
D|-3---3---3---------------------------------------------------1---|
A|-------------3-------------------2---------------2-----0-2-------|
E|---------------3-1-----0-1---4-----------------------------------|
   1 e + a 2 e + a 3 e + a 4 e + a 1 e + a 2 e + a 3 e + a 4 e + a 

G|-----------------------------------------------------------------|
D|-2---2-------2-----------0---1---2---2-------2-------------------|
A|-----------------------------------------------------------------|
E|-----------------0-------------------------------3-------4-------|
   1 e + a 2 e + a 3 e + a 4 e + a 1 e + a 2 e + a 3 e + a 4 e + a 

1:11
G|---------------------------------------------7-------------------|
D|-------------7---------------------------------7-0-----0-2---3---|
A|-0-------------7-0-----0-2---3---5-------------------------------|
E|-----------------------------------------------------------------|
   1 e + a 2 e + a 3 e + a 4 e + a 1 e + a 2 e + a 3 e + a 4 e + a 

G|-----------------------------------------------------------------|
D|-5---5-----5---------------------------------------------0---2---|
A|-------------5-0---------0---2---3---3-----3-----3-----3---------|
E|-----------------3-----------------------------------------------|
   1 e + a 2 e + a 3 e + a 4 e + a 1 e + a 2 e + a 3 e + a 4 e + a 

G|-------------------------------------------4---------------------|
D|-3---3-----3---------------------------------4-0---------0---1---|
A|-------------------------0---1---2---2-----------2-----2---------|
E|-----------------1-----1-----------------------------------------|
   1 e + a 2 e + a 3 e + a 4 e + a 1 e + a 2 e + a 3 e + a 4 e + a 

G|-----------------------------------------------------------------|
D|-2---2-----2-----2-----2-2---2---------------2---2---------------|
A|-----------------------------------------------------------------|
E|---------------------------------0---0-------------------4-------|
   1 e + a 2 e + a 3 e + a 4 e + a 1 e + a 2 e + a 3 e + a 4 e + a 

1:29
G|-------------------------------------------7---------------------|
D|-----------7-----------------------------------------------------|
A|-0---0-----------0-------2---3---5---5-----------5-----0-0-------|
E|-------------------------------------------------------------4---|
   1 e + a 2 e + a 3 e + a 4 e + a 1 e + a 2 e + a 3 e + a 4 e + a 

G|-------------------------------------------5---------------------|
D|-----------5---------------------------------------------0---2---|
A|-------------------------0---2---3---3-----------3-----3---------|
E|-3---3-----------3-----------------------------------------------|
   1 e + a 2 e + a 3 e + a 4 e + a 1 e + a 2 e + a 3 e + a 4 e + a 

G|-------------------------------------------4---------------------|
D|-3---3---------------------------------------4-0---------0---1---|
A|-----------3-------------0---1---2---2-----------2-----2---------|
E|-----------------1-----------------------------------------------|
   1 e + a 2 e + a 3 e + a 4 e + a 1 e + a 2 e + a 3 e + a 4 e + a 

G|-----------------------------------------------------------------|
D|-2---2-----2-----2-----2-----------------------------------------|
A|-------------------------2---------------------------------------|
E|-----------------------------3---0---0---0---0---3---3---4---4---|
   1 e + a 2 e + a 3 e + a 4 e + a 1 e + a 2 e + a 3 e + a 4 e + a 

1:45
G|---------------------------------------------7-------------------|
D|-------------7---------------------------------7-0-----0-2---3---|
A|-0---0---------7-0-----0-2---3---5-------------------------------|
E|-----------------------------------------------------------------|
   1 e + a 2 e + a 3 e + a 4 e + a 1 e + a 2 e + a 3 e + a 4 e + a 

G|-------------------------------------------5---------------------|
D|-5---5-----5-----------------------------------5---------0---2---|
A|-------------------------0---2---3---3-----------3---3-----------|
E|-----------------3-----3-----------------------------------------|
   1 e + a 2 e + a 3 e + a 4 e + a 1 e + a 2 e + a 3 e + a 4 e + a 

G|-------------------------------------------4---------------------|
D|-3---3-----3---------------------------------------------0---1---|
A|-------------------------0---1---2---2-----------2-----2---------|
E|-----------------1---1-------------------------------------------|
   1 e + a 2 e + a 3 e + a 4 e + a 1 e + a 2 e + a 3 e + a 4 e + a 

G|-----------------------------------------------------------------|
D|-2---2-----0-------------2---------------2---0-------------------|
A|---------------2-------------------------------2-----------------|
E|-----------------0---------------0---0-----------0-------4---4---|
   1 e + a 2 e + a 3 e + a 4 e + a 1 e + a 2 e + a 3 e + a 4 e + a 

2:01
G|-------------------------------------------7---------------------|
D|-----------7---------------------------------7-5-0-----0-2---3---|
A|-0---0---------7-0-------2---3---5---5---------------------------|
E|-----------------------------------------------------------------|
   1 e + a 2 e + a 3 e + a 4 e + a 1 e + a 2 e + a 3 e + a 4 e + a 

G|---------------------------------------------5-------------------|
D|-5---5---50--50------------------------------------------0---2---|
A|-----------2---20----------------3---3-----------3---------------|
E|-----------------3-----------------------------------------------|
   1 e + a 2 e + a 3 e + a 4 e + a 1 e + a 2 e + a 3 e + a 4 e + a 

G|-------------------------------------------4---------------------|
D|-3---3-----3---------------------------------4-0---------0---1---|
A|-------------------------0---1---2---2-----------2-----2---------|
E|-----------------1-----1-----------------------------------------|
   1 e + a 2 e + a 3 e + a 4 e + a 1 e + a 2 e + a 3 e + a 4 e + a 

G|-------------------------4---/---9---9---9-----------------------|
D|-2---2-----2---2-2---2---------------------9-7-------------------|
A|-----------------------------------------------9-7---------------|
E|---------------------------------------------------------4-------|
   1 e + a 2 e + a 3 e + a 4 e + a 1 e + a 2 e + a 3 e + a 4 e + a 

2:18
G|-----------------------------------------------------------------|
D|-----------7-------------------------------------0---0---2---3---|
A|-0-------------7-0-------2---3---5---5-----5-5-3-----------------|
E|-----------------------------------------------------------------|
   1 e + a 2 e + a 3 e + a 4 e + a 1 e + a 2 e + a 3 e + a 4 e + a 

G|-----------------------------------------9-----------------------|
D|-5---5-----5---------------------------------9-7---------0---0-2-|
A|-------------------------0---2---3---------------3---3-----------|
E|-----------------3-----------------------------------------------|
   1 e + a 2 e + a 3 e + a 4 e + a 1 e + a 2 e + a 3 e + a 4 e + a 

G|---------------------------------------------4-------------------|
D|-3---------3-----------------------------------4---------0---1---|
A|-------------------------0---1---2---2-----------2-----2---------|
E|-----------------1-----------------------------------------------|
   1 e + a 2 e + a 3 e + a 4 e + a 1 e + a 2 e + a 3 e + a 4 e + a 

G|-----------------------------------------------------------------|
D|-2---2-----2---2-2---2---2-0-------------------------------------|
A|-----------------------------2-----------------------------------|
E|---------------------------------0-------------------------------|
   1 e + a 2 e + a 3 e + a 4 e + a 1 e + a 2 e + a 3 e + a 4 e + a 

rest

2:38
G|---------------------------------------------7-------------------|
D|-----7-------------------------------------------0-----0-2---3---|
A|-0-----------0---0-------2---3---5---5---------------------------|
E|-----------------------------------------------------------------|
   1 e + a 2 e + a 3 e + a 4 e + a 1 e + a 2 e + a 3 e + a 4 e + a 

G|-------------------------------------------5---------------------|
D|-5---5---------------------------------------------------0---2---|
A|-----------5-------------0---2---3---------------3---------------|
E|-----------------3-----------------------------------------------|
   1 e + a 2 e + a 3 e + a 4 e + a 1 e + a 2 e + a 3 e + a 4 e + a 

G|-------------------------------------------4---------------------|
D|-3---3-----3-----------------------------------4---------0---1---|
A|-------------------------0---1---2---2-----------2---------------|
E|-----------------1-----------------------------------------------|
   1 e + a 2 e + a 3 e + a 4 e + a 1 e + a 2 e + a 3 e + a 4 e + a 

G|-----------------------------------------------------------------|
D|-2---2-----2-----------------0---2-------------------------------|
A|-------------------------2---------------------------------------|
E|-----------------0-------------------0-------0---3---3---4---4---|
   1 e + a 2 e + a 3 e + a 4 e + a 1 e + a 2 e + a 3 e + a 4 e + a 

2:55
G|-------------------------------------------7---------------------|
D|-------------7-----------------------------------0-------2---3---|
A|-0---0---------7-0-----0-2---3---5---5---------------------------|
E|-----------------------------------------------------------------|
   1 e + a 2 e + a 3 e + a 4 e + a 1 e + a 2 e + a 3 e + a 4 e + a 

G|---------------------------------------------5-------------------|
D|-5---5---50--50--------------------------------5---------0---2---|
A|-----------2---20----------------3---3-----------3-----3---------|
E|-----------------3-----------------------------------------------|
   1 e + a 2 e + a 3 e + a 4 e + a 1 e + a 2 e + a 3 e + a 4 e + a 

G|---------------------------------------------4-------4---4-------|
D|-3---3-----3-----------------------------------4-----------4-0---|
A|-------------------------0---1---2---2-----------2---------------|
E|-----------------1-----1-----------------------------------------|
   1 e + a 2 e + a 3 e + a 4 e + a 1 e + a 2 e + a 3 e + a 4 e + a 

G|-----------------------------------------------------------------|
D|-------------2----2---2---0----------------2---0-----------------|
A|-----------------------------2-----------------------------------|
E|-0---------0---0-----------------0---0-----------0---0---4---4---|
   1 e + a 2 e + a 3 e + a 4 e + a 1 e + a 2 e + a 3 e + a 4 e + a 
Tabbed by Dave Vucko

            
            
Suggest correction
Creating personal tab
Creating personal tab
You can edit any tab online and save it as your Personal.

You can edit, replace or remove any tab part or add personal notes – all changes will be seen only by you.

Personal tabs can be accessed anytime from any device, even offline.
Learn more »
comments
print report bad tab
guest
You may want to rate the tab now too:
select rating
Wanna post a correction for this tab? Suggest correction