Oops, an error
Loading. Please wait.

Elbow Pain chords

643 views 75 this week
1 commentread comment
1 2 3 4 5
3 more votes to show rating
add to favorites
×
Save as Personal and add changes to this tab that will be seen only by you. Learn more ›
×
You can save this tab as Personal to edit and correct it or add notes. All changes will be seen only by you. Learn more »
launch autoscroll
font size
0
reset
transpose
0
reset
simplify chords
display chords
guitar tuner
edit
Autoscroll
slow
fast
+/-
esc
set tempo
stop
Strumming Is this strumming pattern correct? Yes No
Chorus 90 bpm
1
&
2
&
3
&
4
&
5
&
6
&
7
&
8
&
Listen
Chords:
     Em7           Bm7         Am7
e|----7-------------7------------5----------|
B|----8-------------7------------5----------|
G|----7-------------7------------5----------|
D|----9-------------7------------5----------|
A|----7-------------9------------7----------|
E|----x-------------7------------5----------|

[Intro]
    Em7     Bm7 Am7  
e|---------------------|
B|-------8---7---------|
G|-------7---7--5------|
D|-----9-----7--5------|
A|---7----------7------|
E|---------7----5------|

Em7 Bm7   Am7      
My love was always by my  
                                                X4
Em7 Bm7 Am7
side    oooooooo

[Verse]
The first time he goes into the verse theres a
riff from the seond guitar:
e|-------------------------------|
B|-------------------------------|
G|-----4-------------------------|
D|-5-7---7-5-7-------------------|
A|-------------7-----------------|
E|-------------------------------|

N.C.                   Em7 Bm7   
And I don't know where to  go 
Am7                                      x4
For all my life I've been
Em7 Bm7 
so  close

[Long solo]

[Chorus]
*He hammers onto the Em7 chord during the chorus*

    Em7
e|---7--------------|
B|---7h8------------|
G|---7--------------|
D|---7h9------------|
A|---7--------------|
E|------------------|

*Mutes the strings while strumming in between chords (chucks)*

Em7 Bm7  Am7            
My love was always by my       
Em7 Bm7  Am7
side    oooooooo And I 
Em7 Bm7  Am7
don't know why you dont like to be 
Em7     Bm7    Am7
with me in the sunny day                                 x3
Em7 Bm7  Am7
And I don't know why you to dont call me right 
Em7 Bm7  Am7
now 
Em7 Bm7  Am7
Dont know why you dont like to be 
Em7     Bm7    Am7
with me in the sunny day 

[Outro]
Em7 Bm7  Am7            
My love was always by my                            
Em7 Bm7  Am7
side    oooooooo



************************************

| x  Dead note
| h  Hammer-on
 

************************************

            
            
Suggest correction
Creating personal tab
Creating personal tab
You can edit any tab online and save it as your Personal.

You can edit, replace or remove any tab part or add personal notes – all changes will be seen only by you.

Personal tabs can be accessed anytime from any device, even offline.
Learn more »
Give kudos to tab author, rate the tab!
1 2 3 4 5
comments
print report bad tab
1 comment total.
0 reply
sumizam 10 Jun 24, 2017 01:47 PM

New to guitar so could be wrong but i think that intro riff finishes off with a quick 7 and top 5 on the am7?

guest
You may want to rate the tab now too:
select rating
Wanna post a correction for this tab? Suggest correction