Oops, an error
Loading. Please wait.

Gone Daddy Gone bass

version 2
version 2

Whole song

Interactive

693 views 1 this week
1 commentread comment
1 2 3 4 5
x 4
add to favorites
×
Save as Personal and add changes to this tab that will be seen only by you. Learn more ›
×
You can save this tab as Personal to edit and correct it or add notes. All changes will be seen only by you. Learn more »
launch autoscroll
font size
0
reset
guitar tuner
edit
Autoscroll
slow
fast
+/-
esc
set tempo
stop
Author
Difficulty
-------------------------------------------------------------------------------
			     GONE DADDY GONE - Gnarls Barkley
-------------------------------------------------------------------------------

Tabbed By : OLLY 
e-mail: olliecolbeck@hotmail.co.uk

Tuning: Standard

This is an awesome and catchy song!
So i had to tab it :D

Verse: Not sure How many times, Its easy tp figure out.

G|-------------------------------------------------------------------------|
D|-------------------------------------------------------------------------|
A|-------------------------------------------------------------------------|
E|----9-9-9-9---7-7-7-7--6-6-6--5-5----------------------------------------|

Chorus: x4 And then back to the verse.

G|-------------------------------------------------------------------------|
D|-------------------------------7--7-7------------------------------------|
A|-------------7-7-7-7--9-9-9-9--------------------------------------------|
E|----9-9-9-9--------------------------------------------------------------|

There It Is! Simple! Hope its right, cos im not a great tabber :| but please comment and rate. Cheers :D

            
            
Suggest correction
Creating personal tab
Creating personal tab
You can edit any tab online and save it as your Personal.

You can edit, replace or remove any tab part or add personal notes – all changes will be seen only by you.

Personal tabs can be accessed anytime from any device, even offline.
Learn more »
comments
print report bad tab
1 comment total.
0 reply
webbster87 97 Mar 31, 2008 09:34 PM

great tab, but easy to play!

guest
You may want to rate the tab now too:
select rating
Wanna post a correction for this tab? Suggest correction