Oops, an error
Loading. Please wait.

Bottle To Bottle tab

version 1
version 1

Whole song

  • Wrote this tab a while ago (a year ago), it got re... Show more

Interactive

802 views 12 this week
no commentswrite comment
1 2 3 4 5
2 more votes to show rating
add to favorites
×
Save as Personal and add changes to this tab that will be seen only by you. Learn more ›
×
You can save this tab as Personal to edit and correct it or add notes. All changes will be seen only by you. Learn more »
launch autoscroll
font size
0
reset
how to read this tab
guitar tuner
edit
Autoscroll
slow
fast
+/-
esc
set tempo
stop
About this tab version
Wrote this tab a while ago (a year ago), it got rejected for not being formatted correctly. I've reformatted it. Was this info helpful? Yes No
-------------------------------------------------------------------------------
                      FROM BOTTLE TO BOTTLE - GNARWOLVES
-------------------------------------------------------------------------------
Tabbed by: LeopardSamurai
E-mail: muchdogewow8@gmail.com

Tuning: Drop C# (C#, G#, C#, F#, A#, D#)


[Intro]

(Roach up your ticket...)
D#|---------------------------------------------------------------------------|
A#|---------------------------------------------------------------------------|
F#|---------------------------------------------------------------------------|
C#|--4-4-4-------------------------------4-4-4--------------------------------|
G#|--2-2-2--0-0-0-0-0----5-5-5--0-0-0-0-0--2-2-2--0-0-0-0-0--7-7-7-7-7-7-7-7--|
C#|---------0-0-0-0-0----5-5-5--0-0-0-0-0---------0-0-0-0-0--7-7-7-7-7-7-7-7--|
  ...........................................................................
   PM                                             


(We'll sit on the back steps...)
D#|---------------------------------------------------------------------------|
A#|---------------------------------------------------------------------------|
F#|---------------------------------------------------------------------------|
C#|--4-4-4-------------------------------4-4-4--------------------------------|
G#|--2-2-2--0-0-0-0-0--5-5-5--0-0-0-0-0--2-2-2--0-0-0-0-0--7-7-7-7-7--7--7--7-|
C#|---------0-0-0-0-0--5-5-5--0-0-0-0-0---------0-0-0-0-0--7-7-7-7-7--7--7--7-|
  .................................................................  ^  ^  ^
PM                                                                   Hit these harder in succession

(Cause I've been smoking...)
D#|---------------------------------------------------------------------------|
A#|---------------------------------------------------------------------------|
F#|---------------------------------------------------------------------------|
C#|--4-4-4-------------------------------4-4-4--------------------------------|
G#|--2-2-2--0-0-0-0-0--5-5-5--0-0-0-0-0--2-2-2--0-0-0-0-0--7-7-7-7-7-7-7-7----|
C#|---------0-0-0-0-0--5-5-5--0-0-0-0-0---------0-0-0-0-0--7-7-7-7-7-7-7-7----|
  ...........................................................................
PM

(Getting close to the answer...)
D#|---------------------------------------------------------------------------|
A#|---------------------------------------------------------------------------|
F#|---------------------------------------------------------------------------|
C#|--4-4-4-------------------------------4-4-4--------------------------------|
G#|--2-2-2--0-0-0-0-0--5-5-5--0-0-0-0-0--2-2-2--0-0-0-0-0--7-7-7-7-7-7-7-7-7--|
C#|---------0-0-0-0-0--5-5-5--0-0-0-0-0---------0-0-0-0-0--7-7-7-7-7-7-7-7-7--|
  ...........................................................................
PM 


[Verse]

(Let's get drunk in your car...)
D#|---------------------------------------------------------------------------|
A#|---------------------------------------------------------------------------|
F#|---------------------------------------------------------------------------|
C#|---------------------------------------------------------------------------|
G#|--5-5-5-5-5-5-5-5--0-0-0-0-0-0-0-0--7-7-7-7-7-7-7-7--9-9-9-9-9-9-7-5-------|
C#|--5-5-5-5-5-5-5-5--0-0-0-0-0-0-0-0--7-7-7-7-7-7-7-7--9-9-9-9-9-9-7-5-------|

(Let's not drink at the bar...)
D#|---------------------------------------------------------------------------|
A#|---------------------------------------------------------------------------|
F#|---------------------------------------------------------------------------|
C#|---------------------------------------------------------------------------|
G#|--5-5-5-5-5-5-5-5--0-0-0-0-0-0-0-0--7-7-7-7-7-7-7-7-7-7-7-7-7-7-7-7--------|
C#|--5-5-5-5-5-5-5-5--0-0-0-0-0-0-0-0--7-7-7-7-7-7-7-7-7-7-7-7-7-7-7-7--------|


[Chorus]

(From Bottle to Bottle...)
D#|---------------------------------------------------------------------------|
A#|---------------------------------------------------------------------------|     
F#|---------------------------------------------------------------------------| x2 
C#|--4-4-4-----------------------------4-4-4----------------------------------|     
G#|--2-2-2--0--0-0-0--5-5-5--0--0-0-0--2-2-2--0--0-0-0--7-7-7-7-7-7-7-7-------|
C#|---------0--0-0-0--5-5-5--0--0-0-0---------0--0-0-0--7-7-7-7-7-7-7-7-------|

Here's the tab for the lead at the end of the chorus:
D#|---------------------------------------------------------------------------|
A#|---------------------------------------------------------------------------|
F#|--6h7-6h7-6h7-6h7----------------------------------------------------------|
C#|---------------------------------------------------------------------------|
G#|---------------------------------------------------------------------------|
C#|---------------------------------------------------------------------------|


[Verse 2]

(Cause I got so caught up in a moment...) (Bass only section, play the bend when he says "Changed")
D#|---------------------------------------------------------------------------|
A#|---------------------------------------------------------------------------|
F#|---------------------------------------------------------------------------|
C#|---------------------------------------------------------------------------|
G#|---------------------------------------------------------------------------|
C#|------------------------------------------------------------7b-7br---------|

(And then you...)
D#|---------------------------------------------------------------------------|
A#|---------------------------------------------------------------------------|     
F#|---------------------------------------------------------------------------| 
C#|-x-x-x-x-x-x--4-4---------------------------4-4----------------------------|     
G#|-x-x-x-x-x-x--2-2--0--0-0-0--5-5--0--0-0-0--2-2--0--0-0-0--7-7-7-7-7-7-7-7-|
C#|-x-x-x-x-x-x-------0--0-0-0--5-5--0--0-0-0-------0--0-0-0--7-7-7-7-7-7-7-7-|


[Chorus 2]

(From Bottle to Bottle...)
D#|---------------------------------------------------------------------------|
A#|---------------------------------------------------------------------------|     
F#|---------------------------------------------------------------------------| 
C#|--4-4-4-----------------------------4-4-4----------------------------------|     
G#|--2-2-2--0--0-0-0--5-5-5--0--0-0-0--2-2-2--0--0-0-0--7-7-7-7-7-7-7-7-------|
C#|---------0--0-0-0--5-5-5--0--0-0-0---------0--0-0-0--7-7-7-7-7-7-7-7-------|

D#|------------------------------------------------------------------------------------------------|
A#|------------------------------------------------------------------------------------------------|     
F#|------------------------------------------------------------------------------------------------| 
C#|--4-4-4-------------------------------4-4-4-----------------------------------------------------|     
G#|--2-2-2-0--0-0-0--5-5-5--0--0-0-0-----2-2-2--0--0-0-0--7-7-7-7-7-7-7-7-8-8-8-8-8-8-8-8----------|
C#|--------0--0-0-0--5-5-5--0--0-0-0------------0--0-0-0--7-7-7-7-7-7-7-7-8-8-8-8-8-8-8-8----------|


[Outro]

(Oo-woah-oh...)
D#|------------------------------------------------------------------------------------------------|
A#|------------------------------------------------------------------------------------------------|     
F#|------------------------------------------------------------------------------------------------| x2
C#|--4-4-4-4-4---------------------------------4-4-4-4-4-------------------------------------------|     
G#|--2-2-2-2-2--0--0-0-0--5-5-5-5-5--0--0-0-0--2-2-2-2-2--0--0-0-0--4-4-4-4--x-x-x-x-x--0~---------|
C#|-------------0--0-0-0--5-5-5-5-5--0--0-0-0-------------0--0-0-0--4-4-4-4--x-x-x-x-x--0~---------|

(The truth is...)
D#|---------------------------------------------------------------------------|
A#|---------------------------------------------------------------------------|     
F#|---------------------------------------------------------------------------|
C#|---------------------------------------------------------------------------| Let the last note ring.     
G#|---------------------------------------------------------------------------|
C#|--9--11--0-----------------------------------------------------------------|


End.



************************************

| /   slide up
| \   slide down
| h   hammer-on
| p   pull-off
| ~   vibrato
| +   harmonic
| x   Mute note
| b   Bend
| pb  Pre-bend
| br  Bend release
| pbr Pre-bend release
| brb Bend release bend

************************************

            
            
Suggest correction
Creating personal tab
Creating personal tab
You can edit any tab online and save it as your Personal.

You can edit, replace or remove any tab part or add personal notes – all changes will be seen only by you.

Personal tabs can be accessed anytime from any device, even offline.
Learn more »
Give kudos to tab author, rate the tab!
1 2 3 4 5
comments
print report bad tab
guest
You may want to rate the tab now too:
select rating
Wanna post a correction for this tab? Suggest correction