Oops, an error
Loading. Please wait.

Fun Club album bass

154 views 3 this week
no commentswrite comment
1 2 3 4 5
3 more votes to show rating
add to favorites
×
Save as Personal and add changes to this tab that will be seen only by you. Learn more ›
×
You can save this tab as Personal to edit and correct it or add notes. All changes will be seen only by you. Learn more »
launch autoscroll
font size
0
reset
guitar tuner
edit
Autoscroll
slow
fast
+/-
esc
set tempo
stop
Author
Difficulty
-------------------------------------------------------------------------------
                             FUN CLUB - Gnarwolves
-------------------------------------------------------------------------------
Tabbed by: cesare_moon
E-mail: 

Artist: Gnarwolves
Album: Fun Club
Year: 2011

Tuning: EADG

Tracklist:

1. Party Jams
2. Decay
3. No Time For Old Bones
4. Reaper
5. Chlorine In The Jean Pule

1. PARTY JAMS

Intro - 00.00 - 00.22

G|---------------------------------------------------------------------------|
D|---------------------------------------------------------------------------|
A|-0~------------------------------------------------------------------------|
E|---------------------------------------------------------------------------|

G|---------------------------------------------------------------------------|
D|---------------------------------------------------------------------------|
A|-0-0-0-0-0-0-0-0-0-0-0-0-0-0-0-0-5-5-5-5-5-5-5-5-5-5-5-5-5-5-5-5-----------|
E|---------------------------------------------------------------------------| x2

Verse - 00.22 - 00.40

G|---------------------------------------------------------------------------|
D|---------------------------------------------------------------------------|
A|-0-0-0-0-0-0-0-0-3-3-3-3-3-3-3-3-5-5-5-5-5-5-5-5-5-5-5-5-5-5-5-5-----------|
E|---------------------------------------------------------------------------| x2

G|---------------------------------------------------------------------------|
D|---------------------------------------------------------------------------|
A|---------------------------------------------------------------------------|
E|-1-1-------------0---------------------------------------------------------|

Intro - 00.40 - 00.48

G|---------------------------------------------------------------------------|
D|---------------------------------------------------------------------------|
A|-0-0-0-0-0-0-0-0-0-0-0-0-0-0-0-0-5-5-5-5-5-5-5-5-5-5-5-5-5-5-5-5-----------|
E|---------------------------------------------------------------------------|

Verse - 00.48 - 01.04

G|---------------------------------------------------------------------------|
D|---------------------------------------------------------------------------|
A|-0-0-0-0-0-0-0-0-3-3-3-3-3-3-3-3-5-5-5-5-5-5-5-5-5-5-5-5-5-5-5-5-----------|
E|---------------------------------------------------------------------------| x2

Chorus - 01.04 - 01.30

G|---------------------------------------------------------------------------|
D|---------------------------------------------------------------------------|
A|-----------------0-0-0-0-2-2-2-2-----------------0-0-0-0-0-0-0-0-----------|
E|-1---1-1-0-0-0-0-----------------1---1-1-0-0-0-0---------------------------|

G|---------------------------------------------------------------------------|
D|---------------------------------------------------------------------------|
A|-----------------0-0-0-0-0-0-0-0-----------------3-3-3-3-5-5-5-5-----------|
E|-1---1-1-0-0-0-0-----------------1---1-1-0-0-0-0---------------------------|

G|---------------------------------------------------------------------------|
D|---------------------------------------------------------------------------|
A|-----------------0-0-0-0-0-0-0-0-----------------0-0-0-0-0-0-0-0-----------|
E|-1---1-1-0-0-0-0-----------------1---1-1-0-0-0-0---------------------------|

G|---------------------------------------------------------------------------|
D|---------------------------------------------------------------------------|
A|-----------------0-0-0-0-2-2-2-2-----------------5-5-5-5-5-5-5-5-----------|
E|-1---1-1-0-0-0-0-----------------1---1-1-0-0-0-0---------------------------|

Outro - 01.30 - End. 

G|---------------------------------------------------------------------------|
D|---------------------------------------------------------------------------|
A|-----------------0-0-0-0-0-0-0-0-----------------0-0-0-0-0-0-0-0-----------|
E|-1---1-1-1-3-5-7-----------------1---1-1-1-3-5-7---------------------------|

G|---------------------------------------------------------------------------|
D|---------------------------------------------------------------------------|
A|-----------------0-0-0-0-0-0-0-0-----------------5-5-5-5-5-5-5-5-----------|
E|-1---1-1-1-3-5-7-----------------1---1-1-1-3-5-7---------------------------|



2. DECAY

Intro - 00.00 - 00.18 

G|---------------------------------------------------------------------------|
D|---------------------------------------------------------------------------|
A|---------------------------------------------------------------------------|
E|-0----10-----7-----7-----10----------7----8--10----------------------------|

Verse - 00.18 - 00.52

G|---------------------------------------------------------------------------|
D|---------------------------------------------------------------------------|
A|-2-2-2-2-2-2-2-2-2-2-2---------5-5-5-5-5-5-5-5-5-5-5-5-5-5-5-5-------------|
E|-----------------------1-1-1-1---------------------------------------------| x2

G|---------------------------------------------------------------------------|
D|---------------------------------------------------------------------------|
A|-2-2-2-2-2-2-2-2-2-2-2x--------5-5-5-5-5-5-5-5-5-5-5-5-5-5-5-5-------------|
E|---------------------------2-2---------------------------------------------| 

G|---------------------------------------------------------------------------|
D|---------------------------------------------------------------------------|
A|-2-2-2-2-2-2-2-2-2-2-2---------5-5-5-5-5-5-5-5-5-5-5-5-5-5-5-5-------------|
E|-----------------------1-1-1-1---------------------------------------------| 

Rest for Bridge (Guitar Only) 

Come in at - 01.25 - 01.43

G|---------------------------------------------------------------------------|
D|---------------------------------------------------------------------------|
A|-2-2-2-2-------------------------------------------------------------------|
E|---------------------------------------------------------------------------| x2

Chorus/Outro - 01.43 - End.

G|---------------------------------------------------------------------------|
D|---------------------------------------------------------------------------|
A|-2-2-2-2-2-2-2-2-2-2-2-3-3-3-3-5-5-5-5-5-5-5-5-5-5-5-5-5-5-5-5-------------|
E|---------------------------------------------------------------------------| x4




3. NO TIME FOR OLD BONES

Verse - 00.00 - 00.24

G|-----------------------------------------|
D|-----------------------------------------|
A|-3-3-3-0-0-0-----------------------------|
E|-------------0-0-------------------------|

G|---------------------------------------------------------------------------|
D|---------------------------------------------------------------------------|
A|-3-3-3-3-0-0-0-0-----------------3-3-3-3-0-0-0-0---------------------------|
E|-----------------0-0-0-0-0-0-0-0-----------------0-0-0-0-0-0-0-0-----------|

G|---------------------------------------------------------------------------|
D|---------------------------------------------------------------------------|
A|-0-0-0-0-0-0-0-0-0-0-0-0-0-0-0-0-3-3-3-3-0-0-0-0---------------------------|
E|-------------------------------------------------0-0-0-0-0-0-0-0-----------|

G|---------------------------------------------------------------------------|
D|---------------------------------------------------------------------------|
A|-------------------------0-0-0-0-2-2-2-2-2-2-2-2---------------------------|
E|-0-0-0-0-0-0-0-0-0-0-0-0-------------------------0-0-0-0-0-0-0-0-----------|

Pre-chorus - 00.24 - 00.35

G|---------------------------------------------------------------------------|
D|---------------------------------------------------------------------------|
A|-2-2-2-2-2-2-2-2-0-0-0-0-0-0-0-0-2-2-2-2-2-2-2-2-0-0-0-0-0-0-0-0-----------|
E|---------------------------------------------------------------------------|

Chorus - 00.35 - 00.46

G|---------------------------------------------------------------------------|
D|---------------------------------------------------------------------------|
A|-3-3-3-3-2-2-2-2-0-0-0-0-0-0-0-0-3-3-3-3-2-2-2-2-0-0-0-0-0-0-0-0-----------|
E|---------------------------------------------------------------------------|

G|-----------------------------------------|
D|-----------------------------------------|
A|-3-3-3-0-0-0-----------------------------|
E|-------------0-0-------------------------|

Bridge/Outro - 00.48 - End.

G|---------------------------------------------------------------------------|
D|---------------------------------------------------------------------------|
A|-3-3-3-3---------0-0-0-0-0-0-0-0-3-3-3-3---------0-0-0-0-0-0-0-0-----------|
E|---------0-0-0-0-------------------------0-0-0-0---------------------------| x3

G|---------------------------------------------------------------------------|
D|---------------------------------------------------------------------------|
A|-------------------------0-0-0-0-3---------------0-------------------------|
E|-0-0-0-0-2-2-2-2-0-0-0-0-----------------3---------------0-----------------|




4. REAPER

Intro - 00.00 - 00.08

G|---------------------------------------------------------------------------|
D|---------------------------------------------------------------------------|
A|---------------------------------------------------------------------------|
E|-7-7-7-7-7-7-7-7-7-7-7-7-7-7-7x--0--7-7-7-7-7-7-7-7-7-7-7-7--7-8-10--------|

Verse - 00.08 - 00.18 

G|---------------------------------------------------------------------------|
D|---------------------------------------------------------------------------|
A|---------------------------------2-2-2-2-2-2-2-2-0-0-0-0-0-0-0-0---2-------|
E|-0-0-0-0-0-0-0-0-1-1-1-1-1-1-1-1---------------------------------1---------|

Intro - 00.18 - 00.24

G|---------------------------------------------------------------------------|
D|---------------------------------------------------------------------------|
A|---------------------------------------------------------------------------|
E|-7-7-7-7-7-7-7-7-7-7-7-7-7-7-7x--0--7-7-7-7-7-7-7-7-7-7-7-7----------------|

Verse - 00.25 - 00.41

G|---------------------------------------------------------------------------|
D|---------------------------------------------------------------------------|
A|---------------------------------2-2-2-2-2-2-2-2-0-0-0-0-0-0-0-0-----------|
E|-0-0-0-0-0-0-0-0-1-1-1-1-1-1-1-1-------------------------------------------| x3

G|---------------------------------------------------------------------------|
D|---------------------------------------------------------------------------|
A|---------------------------------2-2-2-2-2-2-2-2-0-0-0-0-0-0-0-0-2-0-------|
E|-0-0-0-0-0-0-0-0-1-1-1-1-1-1-1-1-------------------------------------2-----|

Bridge/Outro - 00.50 - End.

G|---------------------------------------------------------------------------|
D|---------------------------------------------------------------------------|
A|-----------------0-0-0-0-0-0-0-0-2-2-2-2-2-2-2-2-2-2-2-2-2-2-2-2-----------|
E|-2-2-2-2-2-2-2-2-----------------------------------------------------------| x4

G|---------------------------------------------------------------------------|
D|---------------------------------------------------------------------------|
A|-----------------0-0-----------0-2-2-2-------------2--2-2------------------|
E|-2-2-----------2-----------------------------------------------------------|

G|---------------------------------------------------------------------------|
D|---------------------------------------------------------------------------|
A|-----------------0-0-0-0-0-0-0-0-2-2-2-2-2-2-2-2-2-2-2-2-2-2-2-2-----------|
E|-2-2-2-2-2-2-2-2-----------------------------------------------------------| 

G|---------------------------------------------------------------------------|
D|---------------------------------------------------------------------------|
A|-----------------0-0-0-0-0-0-0-0-2-2-2-2-2-2-2-2-5---2---------------------|
E|-2-2-2-2-2-2-2-2-----------------------------------------------------------| 





5. CHLORINE IN THE JEAN PULE

Verse - 00.00 - 00.18 

G|---------------------------------------------------------------------------|
D|---------------------------------------------------------------------------|
A|---------------------------------------------------------------------------|
E|-2-2-2-2-2-2-2-2-2-2-2-2-2-2-2-2-0-0-0-0-0-0-0-0-0-0-0-0-0-0-0-0-----------| x2

Chorus - 00.18 - 00.35

G|---------------------------------------------------------------------------|
D|---------------------------------------------------------------------------|
A|-2-2-2-2-------------------------2-2-2-2-2-2-2-2-2-2-2-2-2-2-2-2-----------|
E|---------1-1-1-1-0-0-0-0-0-0-0-0-------------------------------------------|

G|---------------------------------------------------------------------------|
D|---------------------------------------------------------------------------|
A|---------------------------------2-2-2-2-2-2-2-2-2-2-2-2-2-2-2-2-----------|
E|-2-2-2-2-2-2-2-2-0-0-0-0-0-0-0-0-------------------------------------------|

Post-Chorus - 00.35 - 00.49 

G|---------------------------------------------------------------------------|
D|---------------------------------------------------------------------------|
A|---------------------------------------------------------------------------|
E|-2-2-2-2-2-2-2-2-0-0-0-0-0-0-0-0-2-2-2-2-2-2-2-2-0-0-0-0-0-0-0-0-----------|

G|---------------------------------------------------------------------------|
D|---------------------------------------------------------------------------|
A|-5-5-5-5-5-5-5-5-2-2-2-2-2-2-2-2-------------------------------------------|
E|---------------------------------------------------------------------------|

Chorus - 00.49 - 01.13

G|---------------------------------------------------------------------------|
D|---------------------------------------------------------------------------|
A|-2-2-2-2-------------------------2-----------------------------------------|
E|---------1-1-1-1-0-0-0-0-0-0-0-0-------------------------------------------|

G|---------------------------------------------------------------------------|
D|---------------------------------------------------------------------------|
A|---------------------------------2-2-2-2-2-2-2-2-2-2-2-2-2-2-2-2-----------|
E|-2-2-2-2-2-2-2-2-0-0-0-0-0-0-0-0-------------------------------------------|

Outro - 01.13 - End. 

G|---------------------------------------------------------------------------|
D|---------------------------------------------------------------------------|
A|-5-5-5-5-5-5-5-5---------2-2-2-2-2-2-2-2-2-2-2-2-5-------------------------|
E|-----------------0----0----------------------------------------------------|

G|---------------------------------------------------------------------------|
D|---------------------------------------------------------------------------|
A|-7-7-7-7-7-7-7-7---------0-0-0-0-0-0-0-0-0-0-0-0-0-------------------------|
E|-----------------0----0----------------------------------------------------|

Thank you! :)

| /  slide up
| \  slide down
| h  hammer-on
| p  pull-off
| ~  vibrato
| +  harmonic
| x  Mute note
===============================================================================
Suggest correction
Creating personal tab
Creating personal tab
You can edit any tab online and save it as your Personal.

You can edit, replace or remove any tab part or add personal notes – all changes will be seen only by you.

Personal tabs can be accessed anytime from any device, even offline.
Learn more »
Give kudos to tab author, rate the tab!
1 2 3 4 5
comments
print report bad tab
guest
You may want to rate the tab now too:
select rating
Wanna post a correction for this tab? Suggest correction