Oops, an error
Loading. Please wait.

Shut Up tab

169 views 1 this week
no commentswrite comment
1 2 3 4 5
x 3
add to favorites
×
Save as Personal and add changes to this tab that will be seen only by you. Learn more ›
×
You can save this tab as Personal to edit and correct it or add notes. All changes will be seen only by you. Learn more »
launch autoscroll
font size
0
reset
how to read this tab
guitar tuner
edit
Autoscroll
slow
fast
+/-
esc
set tempo
stop
About this tab version
From the new album Outsiders. Was this info helpful? Yes No
Artist: Gnarwolves
Album: Outsiders
Song: Shut Up


[Intro]
E|-----------------------------------------------------------------|
B|-----------------------------------------------------------------|
G|-----0-------0-------0-------------------------------------------|
D|-----4-------4-------4-------4-------5-4-5---5-4-5---5-4-5-4-4-4-|
A|-----5-------5-------5-------5-------2-2-2---2-2-2---2-2-2-5-5-5-|
E|-3-----3-3-----3-3-----3-3/5-5-5-0-------------------------5-5-5-|
                                   |Hold...                |

E|-----------------------------------------------------------------|
B|-----------------------------------------------------------------|
G|-----0-------0-------0-------------------------------------------|
D|-----4-------4-------4-------4-------5-4-5---5-4-5---5-4-5-4-4-4-|
A|-----5-------5-------5-------5-------2-2-2---2-2-2---2-2-2-5-5-5-|
E|-3-----3-3-----3-3-----3-3/5-5-5-0-------------------------5-5-5-|
                                   |Hold...                |

E|-----------------0-----------------------------------------------|
B|-----------------0---------------------------0-------0-------0---|
G|-5-5-5-5-5-5-5-5-0-------5-5-5-5-5-5-5-5-0-------4-------4-------|
D|-5-5-5-5-5-5-5-5-5-------5-5-5-5-5-5-5-5-5-----------------------|
A|-3-3-3-3-3-3-3-3-2-------3-3-3-3-3-3-3-3-2-----------------------|
E|-----------------0-----------------------0-----------------------|

E|---------------------------|
B|-----0-----------0---------|
G|-4-------4---------------4-|
D|---------------------------|
A|---------------------------|
E|---------------------------|


[Verse]
   I                wanna make you cry              in the worst way.
E|-----------------------------------------------------------------|
B|-----------------------------------------------------------------|
G|-----------------------------------------------------------7-7-7-|
D|-5-5-5-5-5-5-5-5-5-5-5-5-5-4-4-4-4-4-4-4-4-4-4-4-4-4-4-4-4-7-7-7-|
A|-5-5-5-5-5-5-5-5-5-5-5-5-5-5-5-5-2-2-2-2-2-2-2-2-2-2-2-2-2-5-5-5-|
E|-3-3-3-3-3-3-3-3-3-3-3-3-3-5-5-5-0-0-0-0-0-0-0-0-0-0-0-0-0-------|
   x x x x x x x x x x x x x x x x x x x x x x x x x x x x x x x x

                       You just fade away                  from the
E|-----------------------------------------------------------------|
B|-----------------------------------------------------------------|
G|-----------------------------------------------------------7-7-7-|
D|-5-5-5-5-5-5-5-5-5-5-5-5-5-4-4-4-4-4-4-4-4-4-4-4-4-4-4-4-4-7-7-7-|
A|-5-5-5-5-5-5-5-5-5-5-5-5-5-5-5-5-2-2-2-2-2-2-2-2-2-2-2-2-2-5-5-5-|
E|-3-3-3-3-3-3-3-3-3-3-3-3-3-5-5-5-0-0-0-0-0-0-0-0-0-0-0-0-0-------|
   x x x x x x x x x x x x x x x x x x x x x x x x x x x x x x x x

   story that you told     you're both incredibly spiteful and far too
E|-----------------------------------------------------------------|
B|-----------------------------------------------------------------|
G|-----------------------------------------------------------7-7-7-|
D|-5-5-5-5-5-5-5-5-5-5-5-5-5-4-4-4-4-4-4-4-4-4-4-4-4-4-4-4-4-7-7-7-|
A|-5-5-5-5-5-5-5-5-5-5-5-5-5-5-5-5-2-2-2-2-2-2-2-2-2-2-2-2-2-5-5-5-|
E|-3-3-3-3-3-3-3-3-3-3-3-3-3-5-5-5-0-0-0-0-0-0-0-0-0-0-0-0-0-------|
   x x x x x x x x x x x x x x x x x x x x x x x x x x x x x x x x
   delicate to hold.                        and yet you chase your
E|-----------------------------------------------------------------|
B|-----------------------------------------------------------------|
G|---------------------------------------------------------------0-|
D|-5-5-5-5-5-5-5-5-5-5-5-5-5-4-4-4-4-4-4-4-4-4-4-4-4-4-4-4-4---4---|
A|-5-5-5-5-5-5-5-5-5-5-5-5-5-5-5-5-2-2-2-2-2-2-2-2-2-2-2-2-2-5-----|
E|-3-3-3-3-3-3-3-3-3-3-3-3-3-5-5-5-0-0-0-0-0-0-0-0-0-0-0-0-0-------|
   x x x x x x x x x x x x x x x x x x x x x x x x x x x x x 
   pain with alcohol.    It's not so terrible advice until you start
E|-----------------------------------------------------------------|
B|-----------------------------------------------------------------|
G|-----0-------0-------0---------0-----0-------0-------0---------0-|
D|---4-------4-------4---------4-----4-------4-------4---------4---|
A|-----------------------------------------------------------5-----|
E|-3-----3-3-----3-3-----3-3/5-----0-----0-0-----0-0-----0-0-------|

   to lost control                        at the steering wheel
E|-----------------------------------------------------------------|
B|-----------------------------------------------------------------|
G|-----0-------0-------0---------0-----0-------0-------0---------0-|
D|---4-------4-------4---------4-----4-------4-------4---------4---|
A|-----------------------------------------------------------5-----|
E|-3-----3-3-----3-3-----3-3/5-----0-----0-0-----0-0-----0-0-------|

                 but I can't sit still       
E|-----------------0--------------------------------0-|
B|-----------------0--------------------------------0-|
G|-5-5-5-5-5-5-5-5-0----------------5-5-5-5-5-5-5-5-0-|
D|-5-5-5-5-5-5-5-5-5----------------5-5-5-5-5-5-5-5-5-|
A|-3-3-3-3-3-3-3-3-2----------------3-3-3-3-3-3-3-3-2-|
E|-----------------0--------------------------------0-|

  cause you won't fuck off
E|------------------------------------0-|
B|------------------------------------0-|
G|--------------------5-5-5-5-5-5-5-5-0-|
D|--------------------5-5-5-5-5-5-5-5-5-|
A|--------------------3-3-3-3-3-3-3-3-2-|
E|------------------------------------0-|
  
  Shut up shut up       I'm driving out
E|------------------------------------0-|
B|------------------------------------0-|
G|--------------------5-5-5-5-5-5-5-5-0-|
D|--------------------5-5-5-5-5-5-5-5-5-|
A|--------------------3-3-3-3-3-3-3-3-2-|
E|------------------------------------0-|


[Pre-Verse]
E|-----------------------------------------------------------------|
B|-----------------------------------------------------------------|
G|-----0-------0-------0---------------0-------0-------0-----7-7-7-|
D|-----4-------4-------4-------4-------4-------4-------4-----7-7-7-|
A|-----5-------5-------5-------5-------2-------2-------2-----5-5-5-|
E|-3-----3-3-----3-3-----3-3/5-5-5-0-----0-0-----0-0-----0-0-------|


[Verse]
   See I               I thought that you might spit     through your
E|-----------------------------------------------------------------|
B|-----------------------------------------------------------------|
G|-----------------------------------------------------------7-7-7-|
D|-5-5-5-5-5-5-5-5-5-5-5-5-5-4-4-4-4-4-4-4-4-4-4-4-4-4-4-4-4-7-7-7-|
A|-5-5-5-5-5-5-5-5-5-5-5-5-5-5-5-5-2-2-2-2-2-2-2-2-2-2-2-2-2-5-5-5-|
E|-3-3-3-3-3-3-3-3-3-3-3-3-3-5-5-5-0-0-0-0-0-0-0-0-0-0-0-0-0-------|
   x x x x x x x x x x x x x x x x x x x x x x x x x x x x x x x x

 joyless grin        No teeth pursed lips              but still your
E|-----------------------------------------------------------------|
B|-----------------------------------------------------------------|
G|---------------------------------------------------------------0-|
D|-5-5-5-5-5-5-5-5-5-5-5-5-5-4-4-4-4-4-4-4-4-4-4-4-4-4-4-4-4---4---|
A|-5-5-5-5-5-5-5-5-5-5-5-5-5-5-5-5-2-2-2-2-2-2-2-2-2-2-2-2-2-5-----|
E|-3-3-3-3-3-3-3-3-3-3-3-3-3-5-5-5-0-0-0-0-0-0-0-0-0-0-0-0-0-------|
   x x x x x x x x x x x x x x x x x x x x x x x x x x x x x

   stare ain't quite the same. We haven't spoken for an hour just stood
E|-----------------------------------------------------------------|
B|-----------------------------------------------------------------|
G|-----0-------0-------0---------0-----0-------0-------0---------0-|
D|---4-------4-------4---------4-----4-------4-------4---------4---|
A|-----------------------------------------------------------5-----|
E|-3-----3-3-----3-3-----3-3/5-----0-----0-0-----0-0-----0-0-------|

   here smoking in the rain.          Shit, I thought you'd wanna know
E|-----------------------------------------------------------------|
B|-----------------------------------------------------------------|
G|-----0-------0-------0---------0-----0-------0-------0---------0-|
D|---4-------4-------4---------4-----4-------4-------4---------4---|
A|-----------------------------------------------------------5-----|
E|-3-----3-3-----3-3-----3-3/5-----0-----0-0-----0-0-----0-0-------|

                 but I can't sit still       
E|-----------------0--------------------------------0-|
B|-----------------0--------------------------------0-|
G|-5-5-5-5-5-5-5-5-0----------------5-5-5-5-5-5-5-5-0-|
D|-5-5-5-5-5-5-5-5-5----------------5-5-5-5-5-5-5-5-5-|
A|-3-3-3-3-3-3-3-3-2----------------3-3-3-3-3-3-3-3-2-|
E|-----------------0--------------------------------0-|

  cause you won't fuck off
E|------------------------------------0-|
B|------------------------------------0-|
G|--------------------5-5-5-5-5-5-5-5-0-|
D|--------------------5-5-5-5-5-5-5-5-5-|
A|--------------------3-3-3-3-3-3-3-3-2-|
E|------------------------------------0-|
  
  Shut up shut up       I'm driving out
E|------------------------------------0-|
B|------------------------------------0-|
G|--------------------5-5-5-5-5-5-5-5-0-|
D|--------------------5-5-5-5-5-5-5-5-5-|
A|--------------------3-3-3-3-3-3-3-3-2-|
E|------------------------------------0-|

[Solo]
                       Cause I don't sleep sound
E|-0-0-0-0-0-0-0-0-0-0-0-0-0-0-0-0-0---0-0-0-0-0-0-0-|
B|-4-4-4-4-4-4-4-4-4-4-4-4-4-4-4-4-2h3-4-4-4-4-4-4-4-|
G|---------------------------------------------------|
D|---------------------------------------------------|
A|---------------------------------------------------|
E|---------------------------------------------------|

   Since we first hooked up         shut up shut up
E|-0-0-0-0-0-0-0-0-0---0-0-0-0-0-0-0-0-0-0-0-0-0-0-0-|
B|-4-4-4-4-4-4-4-4-2h3-4-4-4-4-4-4-4-4-4-4-4-4-4-4-4-|
G|---------------------------------------------------|
D|---------------------------------------------------|
A|---------------------------------------------------|
E|---------------------------------------------------|

                      I'm driving out
E|-0---0-0-0-0-0-0-0-0-0-0-0---0---0--0--|
B|-2h3-4-4-4-8-8-8-8-7-7-7-7---11/-12-12-|
G|---------------------------------------|
D|---------------------------------------|
A|---------------------------------------|
E|---------------------------------------|

Straight out of fucking town
[Ending]
E|--------------------------------------------------|
B|--------------------------------------------------|
G|-16---16-14-12---12-14-12---12-11-9---9---9-9-9-9-|
D|--------------------------------------------------|
A|-14---14-12-10---10-12-10---10-9--7---7---7-7-7-7-|
E|--------------------------------------------------|

E|--------------------------------------------------|
B|--------------------------------------------------|
G|-16---16-14-12---12-14-12---12-11-9---9---9-9-9-9-|
D|--------------------------------------------------|
A|-14---14-12-10---10-12-10---10-9--7---7---7-7-7-7-|
E|--------------------------------------------------|

  I saw the portrait of a broken man
E|-0-0-0-0-0-0-0-0-0-0-0-0-0-0-0-0-|
B|-0-0-0-0-0-0-0-0-0-0-0-0-0-0-0-0-|
G|-0-0-0-0-0-0-0-0-0-0-0-0-0-0-0-0-|
D|-9-9-9-9-9-9-9-9-9-9-9-9-9-9-9-9-|
A|-7-7-7-7-7-7-7-7-7-7-7-7-7-7-7-7-|
E|-8-8-8-8-8-8-8-8-8-8-8-8-8-8-8-8-|


E|------------------------------------------------|
B|------------------------------------------------|
G|-----------------------7-5---5---5-5-5-5--------|
D|-5---5-4-2---2-4-2---2-7-5---5---5-5-5-5--------|
A|-5---5-4-2---2-4-2---2-5-3---3---3-3-3-3--------|
E|-3---3-2-0---0-2-0---0--------------------------|

E|------------------------------------------------|
B|---------------------------------0-0-0-0--------|
G|-----------------------7-5---5---5-5-5-5--------|
D|-5---5-4-2---2-4-2---2-7-5---5---5-5-5-5---5----|
A|-5---5-4-2---2-4-2---2-5-3---3---3-3-3-3---5----|
E|-3---3-2-0---0-2-0---0---------------------3----|
                                             |Hold...

I'll do anything to sell
Another day spent high as hell
I've been sick

   Serious conversations with myself
E|------------------------------------------------|
B|------------------------------------------------|
G|------------------------------------------------|
D|------------------------------------------------|
A|------------------------------------------------|
E|-2----------------------------------------------|
   |Hold...

   Inventing complicated plans involving you and
E|-----------0------------------------------------|
B|-----------0------------------------------------|
G|-----------0------------------------------------|
D|-----------2------------------------------------|
A|-----------3------------------------------------|
E|------------------------------------------------|
             |Hold...

   me and several people you probably wouldn't know
E|----------------0----------0--------------------|
B|--------------------0------0--------------------|
G|---------------------------0--------------------|
D|---------------------------0--------------------|
A|---------------------------2--------------------|
E|---------------------------3--------------------|
                             |Hold...

   Or even care to, if you did so
E|------------------------------------------------|
B|------------------------------------------------|
G|------------------------------------------------|
D|------------------------------------------------|
A|------------------------------------------------|
E|----2-------------------------------------------|
      |Hold...

   Since I'm afraid of all the versions of me that
   live inside your head
E|-----------------------------------------------------------------|
B|-----------------------------------------------------------------|
G|-----------------------------------------------------------------|
D|-5-5-5-5-5-5-5-5-5-5-5-5-5-5-5-5-5-5-5-5-5-5-5-5-5-5-5-5-5-5-5-5-|
A|-5-5-5-5-5-5-5-5-5-5-5-5-5-5-5-5-5-5-5-5-5-5-5-5-5-5-5-5-5-5-5-5-|
E|-3-3-3-3-3-3-3-3-3-3-3-3-3-3-3-3-3-3-3-3-3-3-3-3-3-3-3-3-3-3-3-3-|

   Is it a symptom or a blessing to have confinced yourself
   you're dead?
E|-----------------------------------------------------------------|
B|-----------------------------------------------------------------|
G|-----------------------------------------------------------------|
D|-4-4-4-4-4-4-4-4-4-4-4-4-4-4-4-4-4-4-4-4-4-4-4-4-4-4-4-4-4-4-4-4-|
A|-5-5-5-5-5-5-5-5-5-5-5-5-5-5-5-5-5-5-5-5-5-5-5-5-5-5-5-5-5-5-5-5-|
E|-2-2-2-2-2-2-2-2-2-2-2-2-2-2-2-2-2-2-2-2-2-2-2-2-2-2-2-2-2-2-2-2-|

   Shit I'll just right the wheel, pretending nothing's
   wrong. Fuck this fuck you, while I'm...
E|---------------------------------------------------|
B|-----------------0-0-0-0-0-0-0-0-0-0-0-0-0-0-0-0-0-|
G|-5-5-5-5-5-5-5-5-4-4-4-4-4-4-4-4-4-4-4-4-4-4-4-4-4-|
D|-5-5-5-5-5-5-5-5-5-5-5-5-5-5-5-5-------------------|
A|-3-3-3-3-3-3-3-3-3-3-3-3-3-3-3-3-------------------|
E|---------------------------------------------------|

   Gone.
E|------------------------------------------------------|
B|-5-8--7--12-10-5------5-8--7--12-10-5-----------------|
G|-0-0--0--0--0--0------0-0--0--0--0--0---------7-----2-|
D|------------------------------------------4-2-7-5-4-2-|
A|-7-10-9--14-12-7------7-10-9--14-12-7-----4-2-5-5-4-0-|
E|-8-12-10-15-14-8------8-12-10-15-14-8-----2-0---3-2---|

Legend:
x   = Palm Mute
|Hold... = Hold the note
h = hammer on next note

            
            
Suggest correction
Creating personal tab
Creating personal tab
You can edit any tab online and save it as your Personal.

You can edit, replace or remove any tab part or add personal notes – all changes will be seen only by you.

Personal tabs can be accessed anytime from any device, even offline.
Learn more »
Give kudos to tab author, rate the tab!
1 2 3 4 5
comments
print report bad tab
guest
You may want to rate the tab now too:
select rating
Wanna post a correction for this tab? Suggest correction