Oops, an error
Loading. Please wait.

Home Tab

211 views 36 this week
no commentswrite comment
1 2 3 4 5
2 more votes to show rating
add to favorites
launch autoscroll
font size
0
reset
how to read this tab
guitar tuner
Autoscroll
slow
fast
+/-
esc
set tempo
stop
Help us to improve Ultimate-Guitar.com Take our survey!
×
Author
Difficulty
intermediate
This is meant to be played on a piano, so it's not easy to play on a guitar. I would try to line up the lyrics
with the tabs if I thought it were possible, but here we are.

A note on the verse - Again, meant for piano so I tabbed the right and left hands separately. The 'right hand'
                      part is played on the 1st string (e) and the 'left hand' part is on the 4th string (D). 



[Hook]
(Play on e, G, or both!)
e|----10--8-----3-----10--8-----3-----10--8-----3------10-------8------------|
B|---------------------------------------------------------------------------|
G|----7---5-----0-----7---5-----0-----7---5-----0------7--------5------------|
D|---------------------------------------------------------------------------|
A|---------------------------------------------------------------------------|
E|---------------------------------------------------------------------------|

[Verse] x2
e|10-8---8-10-13--8-10-13-10-8-10-13----10-8---8-10-13--8-10-13-10-8-10-13---|
B|---------------------------------------------------------------------------|
G|---------------------------------------------------------------------------|
D|0------3------------------------7-----0------3------------------------7---5|
A|---------------------------------------------------------------------------|
E|---------------------------------------------------------------------------|

e|10-8---8-10-13--8-10-13-10-8-10-13----17-----17-15-13-10-8-5-3-1-----------|
B|---------------------------------------------------------------------------|
G|---------------------------------------------------------------------------|
D|0------3------------------------7------------7-----------7---5-3-----------|
A|---------------------------------------------------------------------------|
E|---------------------------------------------------------------------------|

[Hook]
e|----10--8-----3-----10--8-----3-----10--8-----3------10-------8------------|
B|---------------------------------------------------------------------------|
G|----7---5-----0-----7---5-----0-----7---5-----0------7--------5------------|
D|---------------------------------------------------------------------------|
A|---------------------------------------------------------------------------|
E|---------------------------------------------------------------------------|

[Verse]
e|10-8---8-10-13--8-10-13-10-8-10-13----10-8---8-10-13--8-10-13-10-8-10-13---|
B|---------------------------------------------------------------------------|
G|---------------------------------------------------------------------------|
D|0------3------------------------7-----0------3------------------------7---5|
A|---------------------------------------------------------------------------|
E|---------------------------------------------------------------------------|

e|10-8---8-10-13--8-10-13-10-8-10-13----17-----17-15-13-10-8-5-3-1-----------|
B|---------------------------------------------------------------------------|
G|---------------------------------------------------------------------------|
D|0------3------------------------7------------7-----------7---5-3-----------|
A|---------------------------------------------------------------------------|
E|---------------------------------------------------------------------------|
 
[Verse] x2
e|10-8---8-10-13--8-10-13-10-8-10-13----10-8---8-10-13--8-10-13-10-8-10-13---|
B|---------------------------------------------------------------------------|
G|---------------------------------------------------------------------------|
D|0------3------------------------7-----0------3------------------------7---5|
A|---------------------------------------------------------------------------|
E|---------------------------------------------------------------------------|

e|10-8---8-10-13--8-10-13-10-8-10-13----17-----17-15-13-10-8-5-3-1-----------|
B|---------------------------------------------------------------------------|
G|---------------------------------------------------------------------------|
D|0------3------------------------7------------7-----------7---5-3-----------|
A|---------------------------------------------------------------------------|
E|---------------------------------------------------------------------------|

[Bridge]
e|---------------------------------------------------------------------------|
B|---------------------------------------------------------------------------|
G|----7---5-----0-----7---5-----0--------7---5-----0------7--------5---------|
D|---------------------------------3-----------------------------------------|
A|---------------------------------------------------------------------------|
E|---------------------------------------------------------------------------|
 
[Verse]
e|10-8---8-10-13--8-10-13-10-8-10-13----10-8---8-10-13--8-10-13-10-8-10-13---|
B|---------------------------------------------------------------------------|
G|---------------------------------------------------------------------------|
D|0------3------------------------7-----0------3------------------------7---5|
A|---------------------------------------------------------------------------|
E|---------------------------------------------------------------------------|

e|10-8---8-10-13--8-10-13-10-8-10-13----17-----17-15-13-10-8-5-3-1-----------|
B|---------------------------------------------------------------------------|
G|---------------------------------------------------------------------------|
D|0------3------------------------7------------7-----------7---5-3-----------|
A|---------------------------------------------------------------------------|
E|---------------------------------------------------------------------------|
Suggest correction
Give kudos to tab author, rate the tab!
1 2 3 4 5
comments
print report bad tab
guest
You may want to rate the tab now too:
select rating
Wanna post a correction for this tab? Suggest correction