Oops, an error
Loading. Please wait.

Dunas Bass Tab

version 1
version 1

Whole song

Interactive

by GNR
867 views 1 this week
no commentswrite comment
1 2 3 4 5
3 more votes to show rating
add to favorites
launch autoscroll
font size
0
reset
guitar tuner
Autoscroll
slow
fast
+/-
esc
set tempo
stop
Help us to improve Ultimate-Guitar.com Take our survey!
×
Author
Dunas by GNR

Album: Os Homens Nao Se Querem Bonitos
Tabbed by: thedam
E-Mail: 2tug4bug@gmail.com


RIFF 1

G|---------------------------------------------------------------------------|
D|-------------5--5-----5--4--2--2--------2--2-------------------------------|
A|-------5--5--------5--------------2--2--------2--0--2--3--3--------3--3----|
E|-3--3--------------------------------------------------------3--3--------3-|

----------------------------------|
----------------------------------|
-3--4--5--5--------55--33--22--00-|
-------------5--5-----------------|

RIFF 2

G|-------------------------------------------------------|
D|-------55--33--2--2-----2------------------------------|
A|--------------------2-----2--3--3-----3--4--5--5-----5-|
E|-3--3------------------------------3--------------5----|

RIFF 3

G|------------------------------------------------------|
D|-------5--3--2--2------2------------------------------|
A|-------------------2-----2--3--3-----3--4--5--5-----5-|
E|-3--3------------------------------3--------------5---|



RIFF 1 (4x)	Intro + Verse 1

RIFF 2 (2x)	Chorus

RIFF 1 (2x)	Verse 2

RIFF 2 (2x)	Chorus

RIFF 3 (5x)	Instrumental
Suggest correction
Give kudos to tab author, rate the tab!
1 2 3 4 5
comments
print report bad tab
guest
You may want to rate the tab now too:
select rating
Wanna post a correction for this tab? Suggest correction