Oops, an error
Loading. Please wait.

Electric tab

version 1
version 1

Whole song

Interactive

6,254 views 1 this week
2 commentsread comments
1 2 3 4 5
x 3
add to favorites
×
Save as Personal and add changes to this tab that will be seen only by you. Learn more ›
×
You can save this tab as Personal to edit and correct it or add notes. All changes will be seen only by you. Learn more »
launch autoscroll
font size
0
reset
how to read this tab
guitar tuner
edit
Autoscroll
slow
fast
+/-
esc
set tempo
stop
Go Back To The Zoo - Electric

Made By: Squizz1990

Tuning in E.

chorus
So Electric.. oohhwaa..
9--7--9----------------------------------------------------------|
---------9----7--7--5---------7--9--7------7--9--7---------------|
----------------------6---------------6------------6-------------|
-----------------------------------------------------------------|
-----------------------------------------------------------------|
-----------------------------------------------------------------|

verse
She's got a song I wanna sing...
-----------------------------------------------------------------|
9--7--9--5-------------------------------------------------------|
---------------6--4--6-------------------------------------------|
--------------------------6--6--6--8--9--11--9--8--6-------------|
-----------------------------------------------------------------|
-----------------------------------------------------------------|

I Got This song.

-----------------------------------------------------------------|
-----------------------------------------------------------------|
-------------------4---------------------------------------------|
7------------------4---------------------------------------------|
7------------------2---------------------------------------------|
5----------------------------------------------------------------|

            
            
Suggest correction
Creating personal tab
Creating personal tab
You can edit any tab online and save it as your Personal.

You can edit, replace or remove any tab part or add personal notes – all changes will be seen only by you.

Personal tabs can be accessed anytime from any device, even offline.
Learn more »
Give kudos to tab author, rate the tab!
1 2 3 4 5
comments
print report bad tab
2 comments total.
0 reply
Laszloman007 10 Apr 05, 2011 11:29 AM

Goed gedaan/ Well Done ;)

0 reply
nienke_f 10 Aug 14, 2011 07:14 AM

jaa super; de tekst begint alleen met 'There is a song i wanna sing'. haha, maar dat maakt niks uit, het gaat natuurlijk om de tabs. :D

guest
You may want to rate the tab now too:
select rating
Wanna post a correction for this tab? Suggest correction