Oops, an error
Loading. Please wait.

Weekend America chords

25 views 1 this week
no commentswrite comment
1 2 3 4 5
3 more votes to show rating
add to favorites
×
Save as Personal and add changes to this tab that will be seen only by you. Learn more ›
×
You can save this tab as Personal to edit and correct it or add notes. All changes will be seen only by you. Learn more »
launch autoscroll
font size
0
reset
transpose
0
reset
display chords
guitar tuner
edit
Autoscroll
slow
fast
+/-
esc
set tempo
stop
Author
Difficulty
Strumming
There is no strumming pattern for this song yet. and get +5 IQ
Play the A and the E on the twelfth fret for the best sound.

[Intro]
A E
      A
I was gone for the weekend

But now I'm back
                           E
And I'm right here in your arms
        A
Stay in bed with my girlfriend

Sharing dreams
                       E
Making our hearts beat faster

And I hope that you have

Missed me too

         D
Cause it feels so much better

When you're not alone
       E
Yes it feels so much better

When you're not alone
        D
Oooh it feels so much better

When you're not alone
        E
Yeah it feels so much better

When you're not alone
D               A
Oooooh I really miss you
D               A
Oooooh I really miss you
D               A
Oooooh I really miss you
D               A
Oooooh I really miss you
D (once)
Oooooooooh

"Riff":
e------------------------------------14-14-12-12-14-14-12-12-12-12
B-14-14-12-12-14-14-12-12-12-12-(2x)------------------------------
G-----------------------------------------------------------------
D-----------------------------------------------------------------
A-----------------------------------------------------------------
E-----------------------------------------------------------------

e---14-14-12-12-14-14-14-14-14-12-----------
B---------------------------------14-12-14--
G-------------------------------------------
D-------------------------------------------
A-------------------------------------------
E-------------------------------------------

A
When I'm lost;

When I'm lonely;

When I'm down
                    E
You take me in your arms

I close my eyes

And the world is gone

         D
And they say everybody needs some time alone
       E
But it feels so much better when you're not alone
       D
Yes it feels so much better when you're not alone
         E
Ooooh it feels so much better when you're not alone
D (once)
Oooooooooh I really miss you
D               A
Oooooh I really miss you
D               A
Oooooh I really miss you
D
I miss you
A
I miss you
D
I miss you
A
I miss you

Just strum the A on the 12th fret for the ending
Suggest correction
Creating personal tab
Creating personal tab
You can edit any tab online and save it as your Personal.

You can edit, replace or remove any tab part or add personal notes – all changes will be seen only by you.

Personal tabs can be accessed anytime from any device, even offline.
Learn more »
Give kudos to tab author, rate the tab!
1 2 3 4 5
comments
print report bad tab
guest
You may want to rate the tab now too:
select rating
Wanna post a correction for this tab? Suggest correction